Oops, an error
Loading. Please wait.

Titan Transcendence chords

40 views 1 this week
no commentswrite comment
1 2 3 4 5
3 more votes to show rating
add to favorites
×
Save as Personal and add changes to this tab that will be seen only by you. Learn more ›
×
You can save this tab as Personal to edit and correct it or add notes. All changes will be seen only by you. Learn more »
launch autoscroll
font size
0
reset
transpose
0
reset
simplify chords
display chords
guitar tuner
edit
Autoscroll
slow
fast
+/-
esc
set tempo
stop
Strumming
There is no strumming pattern for this song yet. and get +5 IQ
[Intro]
e|-----------------------------------------------------------------|
B|------1-1-1-0-0-0------------------------------------------------|
G|------------------2-2-2------------------------------------------|
D|2-2-2-------------------3-3-3-2-2-2-0-0-0-2-2-2-2-2-2-2-2-2-2-2-2|
A|-----------------------------------------------------------------|
E|-----------------------------------------------------------------|

Em  D  C  Bm  Am  G  Bm

[Verse 1]
    Em
One week has passed, my weary widow
D
 Perfume for the harbour boat
  C                          Bm
Relieve me from your neck of marble
   Am                  G
Release me when your limbs
    Am     G                   B
            (when your limbs) afloat

[Verse 2]
         Em                D
Follow yours and catch the diamonds
                  C
Before all hell reveals to thee
         B
I cannot strive for understanding
            Am                    G
As there is nothing more for me
                                  B
As there is nothing more for me
             Em
I will never feel one moments sadness
D
  For the days we never shared
   C                         B
As I have left this grip of changes
With you,
Am
  my everlasting
G
  my everlasting
Am
  my everlasting
G
  my everlasting
C               D
madness, this gladness
                 Gm
that turned into sadness

[Outro]
Gm  Fm  Ebm  Dm  x2
Eb  Dm/F Fm  Gm
Gm  Fm  Ebm  Dm  x2
Eb  Dm/F Fm  Gm
Dm

Tab for Gm to Dm progression:
e|-------10----10----------|-------10----10----------|------8---8--------|------8---8--------|
B|----11----11----11----11-|----11----11----11----11-|----9---9---9----9-|----9---9---9----9-|
G|-12----------------12----|-12----------------12----|-10-----------10---|-10-----------10---|
D|-------------------------|-------------------------|-------------------|-------------------|
A|-------------------------|-------------------------|-------------------|-------------------|
E|-------------------------|-------------------------|-------------------|-------------------|

e|-----6---6-------|-----6---6-------|-----5---5-------|-----5---5-------|
B|---7---7---7---7-|---7---7---7---7-|---6---6---6---6-|---6---6---6---6-|
G|-8-----------8---|-8-----------8---|-7-----------7---|-7-----------7---|
D|-----------------|-----------------|-----------------|-----------------|
A|-----------------|-----------------|-----------------|-----------------|
E|-----------------|-----------------|-----------------|-----------------|

            
            
Suggest correction
Creating personal tab
Creating personal tab
You can edit any tab online and save it as your Personal.

You can edit, replace or remove any tab part or add personal notes – all changes will be seen only by you.

Personal tabs can be accessed anytime from any device, even offline.
Learn more »
Give kudos to tab author, rate the tab!
1 2 3 4 5
comments
print report bad tab
guest
You may want to rate the tab now too:
select rating
Wanna post a correction for this tab? Suggest correction