Oops, an error
Loading. Please wait.

Are You In tab

version 3
version 3

Whole song

Interactive

by Incubus
28,473 views 45 this week
2 commentsread comments
1 2 3 4 5
x 5
add to favorites
×
Save as Personal and add changes to this tab that will be seen only by you. Learn more ›
×
You can save this tab as Personal to edit and correct it or add notes. All changes will be seen only by you. Learn more »
launch autoscroll
font size
0
reset
how to read this tab
guitar tuner
backing track
0:00
0:00
edit
Autoscroll
slow
fast
+/-
esc
set tempo
stop
Author
-------------------------------------------------------------------------------
                             Icubus - Are You In
-------------------------------------------------------------------------------
Tabbed by:wuggle15
Email:wuggle15@hotmail.com

Tuning:Standard

Intro Gtr 1 (With Volume Swell/Phase Shifter and Delay)
e|-12--------12--------12--------12-------5---------------------------------|
B|-10--------10--------10--------10-------2--8------------------------------|
G|-11--------11--------11--------11-----------------------------------------|
D|-12--------12--------12--------12-----------------------------------------|
A|--------------------------------------------------------------------------|
E|--------------------------------------------------------------------------|

                             (Delay Off)
e|-12---12---9-----4-2-------12---------------------------------------------|
B|-10---10---7-----2-2---5---10---------------------------------------------|
G|-11---11-------------------11---------------------------------------------|
D|-12---12-------------------12---------------------------------------------|
A|--------------------------------------------------------------------------|
E|--------------------------------------------------------------------------|

Drums and Sound Effects (wait about ten seconds)

Gtr 1 (let notes ring)
e|----------12---------------------12-----12--(12)--------------------------|
B|----12(12)-----------------12(12)-----------------------------------------|
G|--------------------------------------------------------------------------|
D|--7----------9(9)--------7----------9(9)----------------------------------|
A|-7----------------------7-------------------------------------------------|
E|--------------------------------------------------------------------------|

Gtr 2 (let notes ring)
e|----------12---------------------12-----12--------------------------------|
B|----12(12)-----------------12(12)-----------------------------------------|
G|--------------------------------------------------------------------------|
D|--7----------9(9)--------7----------9(9)----------------------------------|
A|-7----------------------7-------------------99(9)9------------------------|
E|--------------------------------------------------------------------------|

Verse
Gtr1 (let notes ring)
e|----------12---------------------12-----12(12)----------------------------|
B|----12(12)-----------------12(12)-----------------------------------------|
G|--------------------------------------------------------------------------|
D|--7----------9(9)--------7----------9(9)----------------------------------|
A|-7----------------------7---------------------999(9)9---------------------|
E|--------------------------------------------------------------------------|

Gtr 2 (let notes ring)
e|----------12-------------------------12-----12(12)------------------------|
B|----12(12)---------------------12(12)-------------------------------------|
G|--------------------------------------------------------------------------|
D|--7----------9(9)------------7----------9(9)------------------------------|
A|-7---------------9(9)-99(9)-7---------------------999(9)9-----------------|
E|--------------------------------------------------------------------------|

Gtr 1 (let notes ring)
e|----------12-7-----------------12-----12--(12)----------------------------|
B|----12(12)----7----------12(12)-------------------------------------------|
G|--------------------------------------------------------------------------|
D|--7--------------------7----------9(9)------------------------------------|
A|-7--------------------7---------------------------------------------------|
E|--------------------------------------------------------------------------|

Gtr 2 (let notes ring)
e|----------12--------------------------12-12-------------------------------|
B|----12(12)----------------------12(12)------------------------------------|
G|--------------------------------------------------------------------------|
D|--7----------9(9)-(9)---------7------------9-999--------------------------|
A|-7-------------------999(9)9-7--------------9-----------------------------|
E|--------------------------------------------------------------------------|

Chorus
Gtr 1,Gtr 2
e|-12---9---5------12---9---5-----------------------------------------------|
B|-10---7---2------10---7---2-----------------------------------------------|
G|-11--------------11-------------------------------------------------------|
D|-12--------------12-------------------------------------------------------|
A|--------------------------------------------------------------------------|
E|--------------------------------------------------------------------------|

Gtr 1,Gtr 2
e|-12---9---5------12---9---5-----------------------------------------------|
B|-10---7---2------10---7---2-----------------------------------------------|
G|-11--------------11-------------------------------------------------------|
D|-12--------------12-------------------------------------------------------|
A|--------------------------------------------------------------------------|
E|--------------------------------------------------------------------------|

Interlude
e|-------------------------------------5-(5)--------------------------------|
B|--------------------------------------------------------------------------|
G|--------------2-4bf(4)-4------2--4bf(4)(4)-4-2-4Bf-4----------------------|
D|-2h4(4)(4)-(4)----------2-4(4)----------------------2h4-------------------|
A|-------------------------------------------------------2------------------|
E|--------------------------------------------------------------------------|


e|--------------------------------------------------------------------------|
B|--------------------------------------------------------------------------|
G|---------------2---------------------14-16bf------------------------------|
D|-------2-(2)2h4-4---------------14h16-------------------------------------|
A|-(2)2h4----------xx/------------------------------------------------------|
E|--------------------------------------------------------------------------|
                                          Gtr 2 (let notes ring)
e|--17---------------------------------------------12-----------------------|
B|-(16)-(16)-14(14)------14-14(14)-----------12(12)-------------------------|
G|--------------------14h16-14(14)------------------------------------------|
D|-----------------------------------------7---------9----------------------|
A|----------------------------------------7---------------------------------|
E|--------------------------------------------------------------------------|

(let notes ring)
e|---------------------12---------------------------------------------------|
B|---------------12(12)-----------------------------------------------------|
G|--------------------------------------------------------------------------|
D|-(9)---------7----------9(9)----------------------------------------------|
A|------------7-------------------------------------------------------------|
E|--------------------------------------------------------------------------|

Chorus
Gtr 1,Gtr 2
e|-12---9---5------12---9---5-----------------------------------------------|
B|-10---7---2------10---7---2-----------------------------------------------|
G|-11--------------11-------------------------------------------------------|
D|-12--------------12-------------------------------------------------------|
A|--------------------------------------------------------------------------|
E|--------------------------------------------------------------------------|

Gtr 1,Gtr 2
e|-12---9---5------12---9---5-----------------------------------------------|
B|-10---7---2------10---7---2-----------------------------------------------|
G|-11--------------11-------------------------------------------------------|
D|-12--------------12-------------------------------------------------------|
A|--------------------------------------------------------------------------|
E|--------------------------------------------------------------------------|

Interlude
e|-14------(14)-------------------------------------------------------------|
B|-15------(15)-------------------------------------------------------------|
G|-16------(16)-------------------------------------------------------------|
D|-14------(14)-------------------------------------------------------------|
A|--------------------------------------------------------------------------|
E|--------------------------------------------------------------------------|

Gtr 1,Gtr 2 (let notes ring)
e|----------12---------------------12---------------------------------------|
B|----12(12)-----------------12(12)-----------------------------------------|
G|--------------------------------------------------------------------------|
D|--7----------9(9)--------7----------9(9)----------------------------------|
A|-7----------------------7-------------------------------------------------|
E|--------------------------------------------------------------------------|

Gtr 1,Gtr 2 (let notes ring)
e|----------12---------------------12---------------------------------------|
B|----12(12)-----------------12(12)-----------------------------------------|
G|--------------------------------------------------------------------------|
D|--7----------9(9)--------7----------9(9)----------------------------------|
A|-7----------------------7-------------------------------------------------|
E|--------------------------------------------------------------------------|

Chorus
Chorus
Gtr 1,Gtr 2
e|-12---9---5------12---9---5-----------------------------------------------|
B|-10---7---2------10---7---2-----------------------------------------------|
G|-11--------------11-------------------------------------------------------|
D|-12--------------12-------------------------------------------------------|
A|--------------------------------------------------------------------------|
E|--------------------------------------------------------------------------|

Gtr 1,Gtr 2
e|-12---9---5------12---9---5-----------------------------------------------|
B|-10---7---2------10---7---2-----------------------------------------------|
G|-11--------------11-------------------------------------------------------|
D|-12--------------12-------------------------------------------------------|
A|--------------------------------------------------------------------------|
E|--------------------------------------------------------------------------|

Outro
let ring                          let ring
==========================        ====================
e|-12-------12---12----------12---12---12----12-12--12----------------------|
B|-10-------10---10----------10---10---10b*--10-10--10----------------------|
G|-11---------------11-(11)------------11b*--11-11--11----------------------|
D|-12---------------12-(12)-------------------------------------------------|
A|--------------------------------------------------------------------------|
E|--------------------------------------------------------------------------|

e|-11---10---9---8---7---6---5---4---3--------------------------------------|
B|-9----8----7---6---5---4---3---2---1--------------------------------------|
G|---------------7---6---------------2--------------------------------------|
D|--------------------------------------------------------------------------|
A|--------------------------------------------------------------------------|
E|--------------------------------------------------------------------------|

| /  slide up
| h  hammer-on
| x  Mute note
| b* Bend Half
| bf Bend Full
===============================================================================

            
            
Suggest correction
Creating personal tab
Creating personal tab
You can edit any tab online and save it as your Personal.

You can edit, replace or remove any tab part or add personal notes – all changes will be seen only by you.

Personal tabs can be accessed anytime from any device, even offline.
Learn more »
comments
print report bad tab
2 comments total.
0 reply
pappa 156 Jul 13, 2009 10:48 AM

nice ;)
with harmonics... its funny to play
thanks !

0 reply
paulerxx 95 May 18, 2012 12:48 PM

they make use of some jap/asian scale on the album?

guest
You may want to rate the tab now too:
select rating
Wanna post a correction for this tab? Suggest correction