Oops, an error
Loading. Please wait.

Black Heart Inertia bass

version 1
version 1

Whole song

Interactive

by Incubus
10,963 views 3 this week
1 commentread comment
1 2 3 4 5
x 5
add to favorites
×
Save as Personal and add changes to this tab that will be seen only by you. Learn more ›
×
You can save this tab as Personal to edit and correct it or add notes. All changes will be seen only by you. Learn more »
launch autoscroll
font size
0
reset
guitar tuner
edit
Autoscroll
slow
fast
+/-
esc
set tempo
stop
D Major Ionian
Ben uses a lot of sliding in this song
so play with expression.

Intro Verse 6/4
G|------7--------------5--5-----5-----|
D|---7-----5-----3-----------5--------|
A|5-----------------------------------|
D|------------------------------------|
  1  &  2  &  3  &  4  &  5  &  6  &    


G|------7-----------------------------|
D|---7-----5-----3-----5--5-----------|
A|5--------------------------3--3-----|
D|------------------------------------|
  1  &  2  &  3  &  4  &  5  &  6  &   


G|------7--------------5--5--7--5-----|
D|---7-----5-----3--------------------|
A|5-----------------------------------|
D|------------------------------------|
  1  &  2  &  3  &  4  &  5  &  6  &  


G|------7-----------------------------|
D|---7-----5-----3-----5--5-----------|
A|5--------------------------3--3-----|
D|------------------------------------|
  1  &  2  &  3  &  4  &  5  &  6  &   


Main Verse 6/4
G|------------------------------------|
D|------------------------------------|
A|5--5--5--------------3--3--0-----0--|
D|---------7-----3--------------5-----|
  1  &  2  &  3  &  4  &  5  &  6  &   


G|------------------------------------|
D|------------------------------------|
A|5--5--5-----------------------------|
D|---------7-----3-----3--5--7--5-----|
  1  &  2  &  3  &  4  &  5  &  6  &   


G|------------------------------------|
D|------------------------------------|
A|5--5--5--------------3--3--0-----0--|
D|---------7-----3--------------5-----|
  1  &  2  &  3  &  4  &  5  &  6  &   

G|------------------------------------|
D|---------------------------------5--|
A|5--5--5--------------3--3--5--7-----|
D|---------7-----3--------------------|
  1  &  2  &  3  &  4  &  5  &  6  &   


Pre-Chorus 8/8
G|---------------5--------------------------------|
D|3--------3--5--------3-----------3--5--7--5-----|
A|------------------------------------------------|
D|------------------------------------------------|
  1  &  2  &  3  &  4  &  5  &  6  &  7  &  8  &

G|---------------5--------------------------------|
D|3--------3--5--------3-----------3--5--6--5-----|
A|------------------------------------------------|
D|------------------------------------------------|
  1  &  2  &  3  &  4  &  5  &  6  &  7  &  8  &


G|---------------5--------------------------------|
D|3--------3--5--------3-----------3--5--7--5-----|
A|------------------------------------------------|
D|------------------------------------------------|
  1  &  2  &  3  &  4  &  5  &  6  &  7  &  8  &

G|---------------5--------------------------------|
D|3--------3--5--------3-----3--3--3--5--6--------|
A|------------------------------------------3-----|
D|------------------------------------------------|
  1  &  2  &  3  &  4  &  5  &  6  &  7  &  8  &


Chorus 1 6/4 & 4/4
G|------------------------------------|
D|------------------------------------|
A|5--5--5--------------3--3--0-----0--|
D|---------5-----3-----3--------5-----|
  1  &  2  &  3  &  4  &  5  &  6  &   

G|------------------------------------|
D|---------------------------------5--|
A|5--5--5--------------3--3--5--7-----|
D|---------5-----3-----3--------------|
  1  &  2  &  3  &  4  &  5  &  6  &   

G|------------------------------------|
D|7-----7-----------7-----3--3--3--3--|
A|------------------------------------|
D|------------------------------------|
  1  &  2  &  3  &  4  &  5  &  6  & 

G|------------------------------------|
D|------------------------------------|
A|5--5--5--------------3--3--0-----0--|
D|---------5-----3--------------5-----|
  1  &  2  &  3  &  4  &  5  &  6  &   

G|------------------------------------|
D|---------------------------------5--|
A|5--5--5--------------3--3--5--7-----|
D|---------5-----3--------------------|
  1  &  2  &  3  &  4  &  5  &  6  & 


G|------------------------|
D|------------------------|
A|7-----7-----3--3--------| 
D|------------------------|
  1  &  2  &  3  &  4  &

Break 6/4
G|------------------------------------|-Slide and-|
D|------------------------------------|-rest for--|
A|------------------------------------|-a while---|
D|12\---------------------------------|-----------|

G|------------------------------------|
D|------------------------------------|
A|5-------(5)(5)(5)(5)(5)(5)(5)(5)(5)-|
D|------------------------------------|
  1  &  2  &  3  &  4  &  5  &  6  & 

G|------------------------------------|
D|------------------------------------|
A|(5)(5)(5)(5)(5)(5)(5)(5)(5)(5)(5)(5)|
D|------------------------------------|
  1  &  2  &  3  &  4  &  5  &  6  & 
  

Main Verse 6/4
G|------------------------------------|
D|------------------------------------|
A|5--5--5--------------3--3--0-----0--|
D|---------7-----3--------------5-----|
  1  &  2  &  3  &  4  &  5  &  6  &   


G|------------------------------------|
D|------------------------------------|
A|5--5--5-----------------------------|
D|---------7-----3-----3--5--7--5-----|
  1  &  2  &  3  &  4  &  5  &  6  &   


G|------------------------------------|
D|------------------------------------|
A|5--5--5--------------3--3--0-----0--|
D|---------7-----3--------------5-----|
  1  &  2  &  3  &  4  &  5  &  6  &   

G|------------------------------------|
D|---------------------------------5--|
A|5--5--5--------------3--3--5--7-----|
D|---------7-----3--------------------|
  1  &  2  &  3  &  4  &  5  &  6  &   


Pre-Chorus 8/8
G|---------------5--------------------------------|
D|3--------3--5--------3-----------3--5--7--5-----|
A|------------------------------------------------|
D|------------------------------------------------|
  1  &  2  &  3  &  4  &  5  &  6  &  7  &  8  &

G|---------------5--------------------------------|
D|3--------3--5--------3-----------3--5--6--5-----|
A|------------------------------------------------|
D|------------------------------------------------|
  1  &  2  &  3  &  4  &  5  &  6  &  7  &  8  &


G|---------------5--------------------------------|
D|3--------3--5--------3-----------3--5--7--5-----|
A|------------------------------------------------|
D|------------------------------------------------|
  1  &  2  &  3  &  4  &  5  &  6  &  7  &  8  &

G|---------------5--------------------------------|
D|3--------3--5--------3-----3--3--3--5--6--------|
A|------------------------------------------3-----|
D|------------------------------------------------|
  1  &  2  &  3  &  4  &  5  &  6  &  7  &  8  &


Chorus 2 6/4 & 4/4 (Lots of Variations)
G|------------------------------------|
D|------------------------------------|
A|5--5--5--------------3--3--0-----0--|
D|---------5-----3--------------5-----|
  1  &  2  &  3  &  4  &  5  &  6  &   


G|------------------------------------|
D|---------------------------------5--|
A|5--5--5--------------3--3--5--7-----|
D|---------5-----3--------------------|
  1  &  2  &  3  &  4  &  5  &  6  &   

G|------------------------------------|
D|7-----7-----------7-----3--3--3--3--|
A|------------------------------------|
D|------------------------------------|
  1  &  2  &  3  &  4  &  5  &  6  & 

G|------------------------------------|
D|------------------------------------|
A|5--5--5--------------3--3--0-----0--|
D|---------5-----3--------------5-----|
  1  &  2  &  3  &  4  &  5  &  6  &   


G|------------------------------------|
D|---------------------------------5--|
A|5--5--5--------------3--3--5--7-----|
D|---------5-----3--------------------|
  1  &  2  &  3  &  4  &  5  &  6  &   

G|------------------------|
D|7-----7-----3--3--3--3--|
A|------------------------|
D|------------------------|
  1  &  2  &  3  &  4  &  

G|------------------------------------|
D|------------------------------------|
A|3--0--5--------------3--3--0-----0--|
D|---------5-----3--------------5-----|
  1  &  2  &  3  &  4  &  5  &  6  &   

G|------------------------------------|
D|---------------------------------5--|
A|5--5--5--------------3--3--5--7-----|
D|---------5-----3--------------------|
  1  &  2  &  3  &  4  &  5  &  6  &   


G|------------------------------------|
D|7-----7-----7--7--7-----3--3--3--3--|
A|------------------------------------|
D|------------------------------------|
  1  &  2  &  3  &  4  &  5  &  6  & 


G|------------------------------------|
D|------------------------------------|
A|5--5--5--------------3--3--0-----0--|
D|---------5-----3--------------5-----|
  1  &  2  &  3  &  4  &  5  &  6  &   

G|------------------------------------|
D|---------------------------------5--|
A|5--5--5--------------3--3--5--7-----|
D|---------5-----3--------------------|
  1  &  2  &  3  &  4  &  5  &  6  &   

G|------------------------|
D|7-----7-----------------|
A|------------8--8--------|
D|------------------7\----|
  1  &  2  &  3  &  4  &  


Interlude 7/4
G|------------------------------------------|
D|------------------------------------------|x4
A|---------------3--------------------------|
D|3--------3--5--------3-----------7\-------|
  1  &  2  &  3  &  4  &  5  &  6  &  7  &

G|---------------5--------------------------|
D|3--------3--5-----------------------------|x2
A|---------------------8--------------------|
D|---------------------------------7\-------|
  1  &  2  &  3  &  4  &  5  &  6  &  7  &

G|------------------------------------------|
D|3--------3--2-----------------------------|
A|---------------3-----8--------------------|
D|---------------------------------7\-------|
  1  &  2  &  3  &  4  &  5  &  6  &  7  &

G|---------------5--------|
D|3--------3--5-----------|
A|------------------------|
D|---------------------3--|
  1  &  2  &  3  &  4  &  

G|------------------------------------------------|
D|------------------------------------------------|
A|------------------------------------------------|
D|3--3--3--3--3--3--3--3--3--3--3--3--3--3--3--3--|
  1  &  2  &  3  &  4  &  5  &  6  &  7  &  8  &

Guitar Solo 6/4
G|------------------------------------|
D|------------------------------------|
A|5--5--5--------------3--3--0-----0--|
D|---------5-----3--------------5-----|
  1  &  2  &  3  &  4  &  5  &  6  &   


G|------------------------------------|
D|------------------------------------|
A|5--5--5-----------------------------|
D|---------5-----3-----3--5--7--5-----|
  1  &  2  &  3  &  4  &  5  &  6  &   


G|------------------------------------|
D|------------------------------------|
A|5--5--5--------------3--3--0-----0--|
D|---------5-----3--------------5-----|
  1  &  2  &  3  &  4  &  5  &  6  &   

G|------------------------------------|
D|------------------------------------|
A|5--5--5--------------3--3--5--7-----|
D|---------5-----3--------------------|
  1  &  2  &  3  &  4  &  5  &  6  &   


Final Chorus 6/4 & 4/4 (even more variations)
G|------------------------------------|
D|------------------------------------|
A|5--5--5--------------3--3--0-----0--|
D|---------5-----3--------------5-----|
  1  &  2  &  3  &  4  &  5  &  6  &   


G|------------------------------------|
D|---------------------------------5--|
A|5--5--5--------------3--3--5--7-----|
D|---------5-----3--------------------|
  1  &  2  &  3  &  4  &  5  &  6  &   

G|------------------------------------|
D|7-----7-----------7-----10-10-10-10-|
A|------------------------------------|
D|------------------------------------|
  1  &  2  &  3  &  4  &  5  &  6  & 

G|------------------------------------|
D|------------------------------------|
A|5--5--5--------------3--3--0-----0--|
D|---------5-----3--------------5-----|
  1  &  2  &  3  &  4  &  5  &  6  &   


G|------------------------------------|
D|---------------------------------5--|
A|5--5--5--------------3--3--5--7-----|
D|---------5-----3--------------------|
  1  &  2  &  3  &  4  &  5  &  6  &   

G|------------------------|
D|7-----7-----3--3--3--3--|
A|------------------------|
D|------------------------|
  1  &  2  &  3  &  4  &  

G|------------------------------------|
D|------------------------------------|
A|3--0--5--------------3--3--0-----0--|
D|---------5-----3--------------5-----|
  1  &  2  &  3  &  4  &  5  &  6  &   

G|------------------------------------|
D|---------------------------------5--|
A|5--5--5--------------3--3--5--7-----|
D|---------5-----3--------------------|
  1  &  2  &  3  &  4  &  5  &  6  &   


G|------------------------------------|
D|7-----7-----------7-----10-10-10-10-|
A|------------------------------------|
D|------------------------------------|
  1  &  2  &  3  &  4  &  5  &  6  & 


G|------------------------------------|-Play this-|
D|10h1212--10h1212--10h1212--10h1212--|-one by----|
A|------------------------------------|-ear-------|
D|------------------------------------|-----------|
  Triplets Repeat

G|------------------------|-Fill from-|
D|10h1212--10h12-10-------|-triplets--|
A|------------------12-10-|-into------|
D|------------------------|-outro-----|
  1  &  2  &  3  &  4  & 

  
Outro: 6/4 (repeat part 1. twice then
alternate between 1. and 2. until song ends)

1.
G|------------------------------------|
D|7--7--7--7--3--3--3--3-----------5--|x2
A|------------------------5--5--7-----|
D|------------------------------------|
  1  &  2  &  3  &  4  &  5  &  6  & 
2.
G|------------------------------------|
D|7--7--7--7--3--3--3--3--4--4--------|
A|------------------------------7--5--|
D|------------------------------------|
  1  &  2  &  3  &  4  &  5  &  6  &  

You can drop an octave on the A and G for the last few bars.

            
            
Suggest correction
Creating personal tab
Creating personal tab
You can edit any tab online and save it as your Personal.

You can edit, replace or remove any tab part or add personal notes – all changes will be seen only by you.

Personal tabs can be accessed anytime from any device, even offline.
Learn more »
comments
print report bad tab
1 comment total.
0 reply
MattGarcia1986 30 Jun 10, 2009 09:02 PM

Going over the song a few more times, the tuning is actually in standard which is an easy adjustment if you learned it in drop D. Also the G on the D string during the intro is actually supposed to be an A on the D string. So 7th fret instead of 5th.

guest
You may want to rate the tab now too:
select rating
Wanna post a correction for this tab? Suggest correction