Oops, an error
Loading. Please wait.

Black Heart Inertia tab

version 4
version 4

Whole song

Interactive

by Incubus
2,361 views 1 this week
3 commentsread comments
1 2 3 4 5
2 more votes to show rating
add to favorites
×
Save as Personal and add changes to this tab that will be seen only by you. Learn more ›
×
You can save this tab as Personal to edit and correct it or add notes. All changes will be seen only by you. Learn more »
launch autoscroll
font size
0
reset
how to read this tab
guitar tuner
edit
Autoscroll
slow
fast
+/-
esc
set tempo
stop
Author
Difficulty
Intro (0:00 - 0:11)
   Q   E E E E  E  Q     E E E E E Q    Q   E E E E  E  Q     E E E E E E E
E|-------------------|----------------|-------------------|-----------------|
B|-------------------|----------------|-------------------|-----------------|
G|-----2--------9----|-----2----------|-----2--------9----|-----2-----4-4-0-|
D|-----0--------0----|-----0-------0--|-----0--------0----|-----0-----0-0-0-|
A|-------------------|-------------x--|-------------------|-----------------|
E|-1-----1/3/8-(8)\1-|---1---1/3/5-3--|-1-----1/3/8-(8)-1-|---1---1/3-------|

   E E E E E E E E E E E E
E|------------------------------------|
B|-3-3-3------------------------------|
G|-2-0-2-0-0-------------0------------|
D|-0-0-0-0-0-3-3-2-2-0-2-0------------|
A|-------x-x-3-3-3-3-3-3-0------------|
E|-------3-3-1-1-3-3-3-3--------------|



Verse (0:11 - 0:37) 2(1:11 - 1:43)
   E   E   E   Q       E   E   E   E   E   E   S S
E|--------------------------------------------------|
B|--------------------------------------------------|
G|-9---7---9-------------------7---7---5---7---x-x--|
D|-7---7---7---7\------3---3---5---5---5---5---x-x--|
A|-9---9---9---7\------3---3---7---7---7---7---x-x--|
E|-------------9\------5---5------------------------|4X (6X on 2nd verse)

   E    E    S S  E   S S E    S S E   E   E   E   E
E|-12---10---x-x--9------------x-x-8---8---8---8-------|
B|-10---10---x-x-10---x-x-10---x-x-8---8---8---8---0---|
G|-11---11---x-x--9---x-x-10---x-x-9---9---9---9---0---|
D|--------------------x-x-10-----------------------0---|
A|-----------------------------------------------------|
E|-----------------------------------------------------|4X



Pre-Chorus (0:37 - 0:54) 2(1:43 - 2:00)
   Q   E E E E  E  Q     E E E E E Q   
E|-------------------|----------------|
B|-------------------|----------------|
G|-----2--------9----|-----2----------|
D|-----0--------0----|-----0-------0--|
A|-------------------|-------------x--|
E|-1-----1/3/8-(8)\1-|---1---1/3/5-3--|3X

   Q   E E E E  E  Q     E E E E E E E
E|-------------------|-----------------|
B|-------------------|-----------------|
G|-----2--------9----|-----2-----4-4-0-|
D|-----0--------0----|-----0-----0-0-0-|
A|-------------------|-----------------|
E|-1-----1/3/8-(8)-1-|---1---1/3-------|



Chorus (0:54 - 1:11) 2(2:00 - 2:36) 3(3:21 - 3:56)
   E E E E E E E E E E E E
E|------------------------------------|
B|-3-3-3------------------------------|
G|-2-0-2-0-0-------------0------------|
D|-0-0-0-0-0-3-3-2-2-0-2-0------------|
A|-------x-x-3-3-3-3-3-3-0------------|
E|-------3-3-1-1-3-3-3-3--------------|2X

   E E E E E E E E E E E E
E|------------------------------------|
B|-1-1-1-1-1-1-1-1--------------------|
G|-2-2-2-2-2-2-2-2-2-2-2-2------------|
D|-2-2-2-2-2-2-2-2-3-3-3-3------------|
A|-0-0-0-0-0-0-0-0-3-3-3-3------------|
E|-----------------1-1-1-1------------|

   E E E E E E E E E E E E
E|------------------------------------|
B|-3-3-3------------------------------|
G|-2-0-2-0-0-------------0------------|
D|-0-0-0-0-0-3-3-2-2-0-2-0------------|
A|-------x-x-3-3-3-3-3-3-0------------|
E|-------3-3-1-1-3-3-3-3--------------|2X

   E E E E E E E E
E|-----------------|
B|-1-1-1-1---------|
G|-2-2-2-2-2-2-2-2-|
D|-2-2-2-2-3-3-3-3-|
A|-0-0-0-0-3-3-3-3-|
E|---------1-1-1-1-|(Add Phaser Effect on 3rd chorus, 2nd repetition)

(2nd and 3rd chorus played 2 times)



Bridge (2:36 - 3:08)

    W              +Q.     Q.           W                %+.
E|---------------|---------0---------|-----------------|--------------|
B|---------------|---------5b6r5-----|-----------------|--------------|
G|-/5~~~~--------|-(5)---------------|--4b5r4b5r4b5r4~~|-(4)~~~~------|
D|---------------|-------------------|-----------------|--------------|
A|---------------|-------------------|-----------------|--------------|
E|---------------|-------------------|-----------------|--------------|

    H     +E  E E E   +Q.     Q   E    E E H.          +H       Q
E|------------------|---------------|----------------|-------------------|
B|------------8-----|-------------8-|----------------|-------------------|
G|--9-----(9)---9-7-|-(7)-----9-----|--9-7-----------|----------5/-------|
D|------------------|---------------|------9b10r9----|-(9)---------------|
A|------------------|---------------|----------------|-------------------|
E|------------------|---------------|----------------|-------------------|

   E  E  H     +E   E    E  H         E    H.        Q     E   Q   Q    E
E|---------------------|-----------------|--------------|------------------|
B|---------------------|----12b13~~~~r12-|-10~~------12-|-(12)-10--12---10-|
G|-12/14\12~~--(12)-12-|-14--------------|--------------|------------------|
D|---------------------|-----------------|--------------|------------------|
A|---------------------|-----------------|--------------|------------------|
E|---------------------|-----------------|--------------|------------------|

   E  E  E  Q        E  E  E     E   E  E  E  E  E      
E|-------15-17b19r17-15----15-|-(15)---------------------|
B|-13/15----------------17----|------17-17-15/17-20------|
G|----------------------------|--------------------------|
D|----------------------------|--------------------------|
A|----------------------------|--------------------------|
E|----------------------------|--------------------------|

   E  E  E  E  E  E  E  E     E  E  E  E  E  E  E  E
E|--------------------------|----15-19-19-19-19-19-19--|
B|-17-20\17-15-13-15-13-15--|-17----------17-17-17-17--|
G|--------------------------|--------------------------|
D|--------------------------|--------------------------|
A|--------------------------|--------------------------|
E|--------------------------|--------------------------|

   E  E  E  E  E  E  E  E
E|-19-19-19-19-19-19-19-19--|
B|-17-17-17-17-17-17-17-17--|
G|--------------------------|
D|--------------------------|
A|--------------------------|
E|--------------------------|



Solo (3:08 - 3:21)

   E    Q       Q       E   E   E   E   E   Q
E|-----------------------------------------------------|
B|-----------------------------------------------------|
G|-----------------------------------------------------|
D|-----------------------------------------------------|
A|-----------------------------------------------------|
E|-10---7-------8-------5---7---3---5---1---3/---------|

   E    Q       Q       E   E   E   E   E   Q
E|-----------------------------------------------------|
B|-----------------------------------------------------|
G|-----------------------------------------------------|
D|-----------------------------------------------------|
A|------------------------------8---10--8---10---------|
E|-10---7-------8-------5---7--------------------------|

   E   H             +E     S  S  S  S  S  S  Q.
E|-----------------------------------------------------|
B|-x---10------------(10)------------------------------|
G|-x---12b14---------(14)---14r12-------10-12-10~~-----|
D|--------------------------------10-12----------------|
A|-----------------------------------------------------|
E|-----------------------------------------------------|
  |--3--| |--3--| |--3--| |--3--|  |--3--| |--3--|  |--3--|  |--3--|
  S  S  S S  S  S S  S  S S  S  S  S  S  S S  S  S  S  S  S  S  S  S
E|-----------------------------------------------------------10h12h13--|
B|---------------------------------10h12h13---------10h12h13-----------|
G|-------------------------9h10h12----------9h10h12--------------------|
D|-----------------9h10h12---------------------------------------------|
A|---------8h10h12-----------------------------------------------------|
E|-8h10h12-------------------------------------------------------------|
                  |--3--|
   H.            +S  S  S       W.
E|-15b17--------(17)-15p13---|--------|
B|---------------------------|--15~~~-|
G|---------------------------|--------|
D|---------------------------|--------|
A|---------------------------|--------|
E|---------------------------|--------|




Outro (3:56 - 4:25)

   E E E E E E E E E E E E E E E E E E E E E E E E E E E E
E|-1-1-1-----------1-1-1---1-1-1-----------1-1-1---2-2-2----|
B|-3-3-3-0-1-1-1-0-1-1-1-0-3-3-3-0-1-1-1-0-1-1-1-0-3-3-3-0--|
G|-2-2-2-0-2-2-2-0-2-2-2-0-2-2-2-0-2-2-2-0-2-2-2-0-2-2-2-0--|
D|-0-0-0-0-2-2-2-0-3-3-3-0-0-0-0-0-2-2-2-0-3-3-3-0-0-0-0-0--|
A|---------0-0-0-------------------0-0-0--------------------|
E|----------------------------------------------------------|

   E E E E E E E E E E E E E E E E E E E E E E E E
E|---------1-1-1---1-1-1-----------1-1-1---2-2-2----|
B|-1-1-1-0-1-1-1-0-3-3-3-0-1-1-1-0-1-1-1-0-3-3-3-0--|
G|-2-2-2-0-2-2-2-0-2-2-2-0-2-2-2-0-2-2-2-0-2-2-2-0--|
D|-2-2-2-0-3-3-3-0-0-0-0-0-2-2-2-0-3-3-3-0-0-0-0-0--|
A|-0-0-0-------------------0-0-0--------------------|
E|--------------------------------------------------|


E|----------------------------------------------------------|
B|----------------------------------------------------------|
G|----------------------------------------------------------|
D|----5/7-5/7---7-5/7-5/7---7-5/7-5/7---7-5/7-5/7~~---------|
A|-0--------------------------------------------------------|
E|----------------------------------------------------------|

Legend
h : Hammer-on
p : Pull-off
b : Bend
r : Release
/ : Slide up
\ : Slide down
~ : Vibrato

            
            
Suggest correction
Creating personal tab
Creating personal tab
You can edit any tab online and save it as your Personal.

You can edit, replace or remove any tab part or add personal notes – all changes will be seen only by you.

Personal tabs can be accessed anytime from any device, even offline.
Learn more »
Give kudos to tab author, rate the tab!
1 2 3 4 5
comments
print report bad tab
3 comments total.
0 reply
jmo74 215 Mar 14, 2013 09:52 AM

Solid tab!

0 reply
lksroots 10 May 18, 2015 04:20 PM

why is the intro drop D then the rest of the song is standard tuning?

0 reply
Absolute Rock-O 407 May 19, 2015 08:21 PM

Typo, my bad I guess. Good thing I noticed that mistake... 2 years after posting this damn tab! ;)

guest
You may want to rate the tab now too:
select rating
Wanna post a correction for this tab? Suggest correction