Oops, an error
Loading. Please wait.

Consequence tab

version 1
version 1

Whole song

Interactive

by Incubus
11,292 views 3 this week
2 commentsread comments
1 2 3 4 5
x 6
add to favorites
×
Save as Personal and add changes to this tab that will be seen only by you. Learn more ›
×
You can save this tab as Personal to edit and correct it or add notes. All changes will be seen only by you. Learn more »
launch autoscroll
font size
0
reset
how to read this tab
guitar tuner
edit
Autoscroll
slow
fast
+/-
esc
set tempo
stop
Author
Song - Consequence 
Artist - Incubus 
Album - Make yourself 
Tabbed by Tom Kelly 
standard tuning. 
intro/riff 1 
e|------------------------------------------------------ 
B|-------------0------------------0--------0------------ 
G|----------13-----13s----------8-----8s---4------------ 
D|--------0---------0---------0-------0----0------------
A|-----11----------11s------6---------6s---2------------
E|--12-------------12s----7-----------7s---3------------

e|------------------------------------------------------ 
B|-------------0------------------0--------------0------
G|----------13-----13s----------8---8-----7-7s---4------
D|--------0---------0---------0-------------0----0------
A|-----11----------11s------6-----------5---5s---2------
E|--12-------------12s----7-----------6-----6s---3------
  

riff 2 (with distortion) 
e|------------------------------------------------------ 
B|---0--0--0----0-0-0--0-0-0----------------------------
G|--13-13-13----8-8-8--7-7-4----------------------------
D|---0--0--0----0-0-0--0-0-0----------------------------
A|--11-11-11----6-6-6--5-5-2----------------------------
E|--12-12-12----7-7-7--6-6-3----------------------------

variation of riff 2(you can play either. the top one is better i think) 
e|------------------------------------------------------ 
B|------------------------------------------------------
G|------------------------------------------------------
D|---14-14-14---9-9-9-8-8-5----------------------------- 
A|---14-14-14---9-9-9-8-8-5----------------------------- 
E|---12-12-12---7-7-7-6-6-3----------------------------- 

riff 3 
e|------------------------------------------------------ 
B|------------------------------------------------------
G|------------------------------------------------------
D|--14-14-14-14--9-12-12-12-----------------------------
A|--14-14-14-14--9-12-12-12----------------------------- 
E|--12-12-12-12--7-10-10-10----------------------------- 

riff 4 
e|------------------------------------------------------ 
B|----------------------------------------12b-12b-12----
G|-11b(13) hold this for a long time-then--------------- 
D|------------------------------------------------------
A|------------------------------------------------------
E|------------------------------------------------------

riff 5 
e|------------------------------------------------ 
B|------------------------------------------------ 
G|------------------------------------------------ 
D|--9-9--9-9--9-9--9-9--8-8--8-8--8-8--5-5--------
A|--9-9--9-9--9-9--9-9--8-8--8-8--8-8--5-5--------
E|--7-7--7-7--7-7--7-7--6-6--6-6--6-6--3-3-------- 

Arrangement: 
intro 
verse - riff 1 x2 and riff 2 x1 
chorus - riff 2 x2 and riff 3 x4 
bridge - riff 5 x1 and riff 4 x1 

all verses and chorus are the same

            
            
Suggest correction
Creating personal tab
Creating personal tab
You can edit any tab online and save it as your Personal.

You can edit, replace or remove any tab part or add personal notes – all changes will be seen only by you.

Personal tabs can be accessed anytime from any device, even offline.
Learn more »
comments
print report bad tab
2 comments total.
0 reply
gr63 0 Feb 14, 2002 07:00 PM

good job at is really good

0 reply
Szey 30 May 05, 2002 08:00 PM

Great job at tabing this song(which is awesome by the way), but i'm
afraid a part of your verse and chorus are wrong.

The 2nd of the verse goes:

E--------------------------------------
B--------0---0/------0-------0/-0------
G----13---13/-----8-8------7/-4--------
D-----0------0/----0---0-----0/-0------
A---11------11/---6-----6-7--5/-2------
E-12--------12/--7-------6---6/-3------

And the 2nd part of the chorus goes:

E---------------------------------------
B---------------------------------------
G-9-999---7-777-------------------------
D-9-999-9-7-777-6-----------------------
A-7-777-9-5-555-6-----------------------
E-------7-------4-----------------------

guest
You may want to rate the tab now too:
select rating
Wanna post a correction for this tab? Suggest correction