Oops, an error
Loading. Please wait.

Nebula bass

version 1
version 1

Whole song

  • Here is the studio version of Incubus' song, Nebul... Show more

Interactive

by Incubus
1,681 views 3 this week
1 commentread comment
1 2 3 4 5
1 last vote to show rating
add to favorites
×
Save as Personal and add changes to this tab that will be seen only by you. Learn more ›
×
You can save this tab as Personal to edit and correct it or add notes. All changes will be seen only by you. Learn more »
launch autoscroll
font size
0
reset
guitar tuner
edit
Autoscroll
slow
fast
+/-
esc
set tempo
stop
Incubus - nebula
Tabbed By: Andrea Giuliani
EMail: Corey_8@katamail.com

 RIGHT ORDER:
 Verse riff X 8    " Do you enjoy your sight inside? "
 Heavy riff 1    " Disconnect and let me drift... "
 Interlude riff 1  X 2    " On overdrive! "
 Breakdown riff
 Verse riff X 8    " In little, black book do I confide "
 Heavy riff 1    " Upon return, I conjure what was seen... "
 Interlude riff 1  X 2
 Breakdown riff variation    " Prize, prize, prize "
 Interlude riff 2  X 3
 Interlude riff 3
 Heavy riff 2
 Heavy riff 1
 Interlude riff 1  X 2
 End


VERSE RIFF:
 G:--------------------------||
 D:--------------------------||
 A:--------------------------||
 E:---/11--11-11-11--7-7-7---||
 B:--------------------------||

HEAVY RIFF 1:
               X 3
 G:------------|--------------------------|-----------------||
 D:------------|--------------------------|-----------------||
 A:---------6--|---------6-------------6--|---------6---6---||
 E:---5--5-----|--5--5-5----5--5-5-5-5----|--5--5-5---5-----||
 B:------------|--------------------------|-----------------||

INTERLUDE RIFF 1:
  X 3
 G:-------------------|--------------------------||
 D:-----4-2-0-2-0-----|--------------------------||
 A:---2-----------4-5-|--------------------------||
 E:-------------------|-3--3--3--3--5--5--5--5---||
 B:-------------------|--------------------------||

BREAKDOWN RIFF:
  X 2
 G:--------------------|--------------------|-------------------------||
 D:--------------------|--------------------|-------------------------||
 A:--------------------|--------------------|--------------------2/---||
 E:--------------------|--------------------|-------------------------||
 B:---3--3-3-3--3-3-3--|--3-3--3-3--3-3-3---|---3--3-3-3--3-3-3-------||

 Variation: 
                                            |----------------------------||
                                            |----------------------------||
          same              same            |--------------------2/7*\---||  *=thrill
                                            |----------------------------||
                                            |---3--3-3-3--3-3-3----------||


INTERLUDE RIFF 2:
  X 3
 G:-------------------|----------||
 D:-----4-2-0-2-0-----|----------||
 A:---2-----------4-5-|----------||
 E:-------------------|----------||
 B:-------------------|-0----1---||

INTERLUDE RIFF 3:
 G:----------------------||
 D:----------------------||
 A:----------------------||
 E:-------------3--------||
 B:---0----3---------1---||

HEAVY RIFF 2:
 G:----------------------|--------------------||
 D:----------------------|--------------------||
 A:---------5---------5--|-------5------------||
 E:----------------------|--------------------||
 B:---3--3-----3--3-3----|--3-3----3--3-3-3---||

END:
 G:-------||
 D:-------||
 A:-------||
 E:---7---||
 B:---0---||

            
            
Suggest correction
Creating personal tab
Creating personal tab
You can edit any tab online and save it as your Personal.

You can edit, replace or remove any tab part or add personal notes – all changes will be seen only by you.

Personal tabs can be accessed anytime from any device, even offline.
Learn more »
Give kudos to tab author, rate the tab!
1 2 3 4 5
comments
print report bad tab
1 comment total.
0 reply
stanton119 257 Dec 30, 2015 04:03 AM

The verse seems a semitone higher:

VERSE RIFF:
G:--------------------------||
D:--------------------------||
A:--------------------------||
E:---/11--11-11-11–8-8-8---||
B:--------------------------||

guest
Wanna post a correction for this tab? Suggest correction