Oops, an error
Loading. Please wait.
We have Chord Pro version of No Fun.
It's the closest thing you can get to the original song and it has interactive parts. Check out the tab »
×

No Fun bass

version 1
version 1

Whole song

  • This is a basic transcription of the bassline. Fee... Show more

Interactive

by Incubus
97 views 3 this week
no commentswrite comment
1 2 3 4 5
3 more votes to show rating
add to favorites
×
Save as Personal and add changes to this tab that will be seen only by you. Learn more ›
×
You can save this tab as Personal to edit and correct it or add notes. All changes will be seen only by you. Learn more »
launch autoscroll
font size
0
reset
guitar tuner
edit
Autoscroll
slow
fast
+/-
esc
set tempo
stop
About this tab version
This is a basic transcription of the bassline. Feel free to add anything while you play. Was this info helpful? Yes No
as part of the Mitchell Black & White competition-

[Intro]
G|-----------------------------------------------------------------|
D|-----------------------------------------------------------------|
A|-----------------------------------------------------------------|
E|-3-3-3-3-3-3-3-3-3-3-3-3-3-3-3-3-3-3-3-3-3-3-3-3-3-3-3-3-3-3-3-3-|


G|--------------------------------------------------------------------|
D|--------------------------------------------------------------------|
A|----------------------------2----2-/4--4--4--4----------------------|
E|-0----0--0----0--0-/4--4----------------------------3-3-3-3-3-3-3-3-|

G|--------------------------------------------------------------------|
D|--------------------------------------------------------------------|
A|----------------------------2----2-/4--4--4--4----------------------|
E|-0----0--0----0--0-/4--4----------------------------3-3-3-3-2-2-2-2-|

[Verse 1]
I feel like I may have been here before
All of it looks so familiar
                           G|-----------------|
                           D|-----------------|
                           A|-----------------|
                           E|-3-3-3-3-2-2-2-2-|
I wanna see beyond the obvious
So show me a new constellation

[Chorus] (2x)
Ay! You're no fun, you're no fun
G|--------------------------------------------------------------------|
D|--------------------------------------------------------------------|
A|----------------------------2----2-/4--4--4--4----------------------|
E|-0----0--0----0--0-/4--4----------------------------3-3-3-3-3-3-3-3-|

You're a song I never wanna hear again!
G|--------------------------------------------------------------------|
D|--------------------------------------------------------------------|
A|----------------------------2----2-/4--4--4--4----------------------|
E|-0----0--0----0--0-/4--4----------------------------3-3-3-3-2-2-2-2-|

[Interlude]
Whoa! Whoa! Whoa!

[Verse 2]
  I feel like I'm always the last to know
G|----------------------------------------|
D|----------------------------------------|
A|----------------------------------------|
E|-0--------------------------------------|

  The king of the dunces and the idiots
G|----------------------------------------|
D|----------------------------------------|
A|----------------------------------------|
E|-0----------------------3-3-3-3-2-2-2-2-|

  But where is the bliss in all this ignorance? Oh,
G|----------------------------------------|
D|----------------------------------------|
A|----------------------------------------|
E|-0--------------------------------------|  

  Just show me a new constellation
G|----------------------------------------|
D|----------------------------------------|
A|----------------------------------------|
E|-0----------------------3-3-3-3-2-2-2-2-|

[Chorus] (2x)
Ay! You're no fun, you're no fun
G|--------------------------------------------------------------------|
D|--------------------------------------------------------------------|
A|----------------------------2----2-/4--4--4--4----------------------|
E|-0----0--0----0--0-/4--4----------------------------3-3-3-3-3-3-3-3-|

You're a song I never wanna hear again!
G|--------------------------------------------------------------------|
D|--------------------------------------------------------------------|
A|----------------------------2----2-/4--4--4--4----------------------|
E|-0----0--0----0--0-/4--4----------------------------3-3-3-3-2-2-2-2-|

[Bridge]
       Never again... (3x)
G|----------------------------------------|
D|-4------------------0-------------------| (4x)
A|----------------------------------------|
E|----------------------------------------| 

Don't you get it?
G|----------------------------------------|
D|-4------------------0-------------------|
A|----------------------------------------|
E|----------------------------------------| 

  I only want to break your spell (ohh oh ohhh)
G|----------------------------------------|
D|-4------------------0-------------------|
A|----------------------------------------|
E|----------------------------------------| 

Don't you get it?
G|----------------------------------------|
D|-4------------------0-------------------|
A|----------------------------------------|
E|----------------------------------------| 

  You're the snake that eats its tail
G|----------------------------------------|
D|-4------------------0-------------------|
A|----------------------------------------|
E|----------------------------------------| 

[Chorus] (2x)
Ay! You're no fun, you're no fun
G|--------------------------------------------------------------------|
D|--------------------------------------------------------------------|
A|----------------------------2----2-/4--4--4--4----------------------|
E|-0----0--0----0--0-/4--4----------------------------3-3-3-3-3-3-3-3-|

You're a song I never wanna hear again!
G|--------------------------------------------------------------------|
D|--------------------------------------------------------------------|
A|----------------------------2----2-/4--4--4--4----------------------|
E|-0----0--0----0--0-/4--4----------------------------3-3-3-3-2-2-2-2-|

[Outro]
Ay! Whoa! Whoa!
G|--------------------------------------------------------------------|
D|--------------------------------------------------------------------|
A|----------------------------2----2-/4--4--4--4----------------------|
E|-0----0--0----0--0-/4--4----------------------------3-3-3-3-3-3-3-3-|

Whoa!
G|-----------------------------------------------------------------------------------|
D|-----------------------------------------------------------------------------------|
A|----------------------------2----2-/4--4--4--4-------------------------------------|
E|-0----0--0----0--0-/4--4----------------------------3-3-3-3-3--3--3---3----3-------|

(He he he why man? Heheheh... aw)

************************************
/ = Slide up
************************************

            
            
Suggest correction
Creating personal tab
Creating personal tab
You can edit any tab online and save it as your Personal.

You can edit, replace or remove any tab part or add personal notes – all changes will be seen only by you.

Personal tabs can be accessed anytime from any device, even offline.
Learn more »
Give kudos to tab author, rate the tab!
1 2 3 4 5
comments
print report bad tab
guest
You may want to rate the tab now too:
select rating
Wanna post a correction for this tab? Suggest correction