Oops, an error
Loading. Please wait.

Oil And Water tab

version 2
version 2

Whole song

Interactive

by Incubus
13,082 views 9 this week
1 commentread comment
1 2 3 4 5
x 4
add to favorites
×
Save as Personal and add changes to this tab that will be seen only by you. Learn more ›
×
You can save this tab as Personal to edit and correct it or add notes. All changes will be seen only by you. Learn more »
launch autoscroll
font size
0
reset
how to read this tab
guitar tuner
edit
Autoscroll
slow
fast
+/-
esc
set tempo
stop
Author
intro
e|------------------------------7-7--|  use pinky or ring finger to accent 
B|-----------------------------------|    the high A
G|--------7-----7---9-----9-----9-9--|
D|--9-9-9---9-9---9---9-9---9-9------|
A|-----------------------------------|
E|-----------------------------------|

verse 1
e|------------------------------7-7--| x5
B|o---------------------------------o|
G|--7-----7-----7---9-----9-----9-9--|
D|----9-9---9-9---9---9-9---9-9------|
A|o---------------------------------o|
E|-----------------------------------|

bridge 1
e|--------------7----| x3
B|o---------8-----8-o|
G|----9---9---9------|
D|--9---9------------|
A|o-----------------o|
E|-------------------|

e|-------------10---|
B|-----8------------|
G|---9---9---9------|
D|-9-------9--------|
A|------------------|
E|------------------|

e|-------------7---|
B|---------8-----8-|
G|---9---9---9-----|
D|-9---9-----------|
A|-----------------|
E|-----------------|

e|-------------7---|
B|-----8---------8-|
G|---9---9---9-----|
D|-9-------9-------|
A|-----------------|
E|-----------------|

e|-7---7---7---7-7---------------------10--|
B|---7---7---------10-10-10-10b11r10-8-----|
G|-----------9-9-9-9-----------------------|
D|-----------------------------------------|
A|-----------------------------------------|
E|-----------------------------------------|

verse 2
e|------------------------------7-7--|
B|o---------------------------------o| x4
G|--7-----7-----7---9-----9-----9-9--|
D|----9-9---9-9---9---9-9---9-9------|
A|o---------------------------------o|
E|-----------------------------------|

bridge 2
e|-------------7----|
B|---------8-----8--|
G|---9---9---9------|
D|-9---9------------|
A|------------------|
E|------------------|

e|-------------7---|
B|-----8---------8-|
G|---9---9---9-----|
D|-9-------9-------|
A|-----------------|
E|-----------------|

e|-------------7----|
B|---------8-----8--|
G|---9---9---9------|
D|-9---9------------|
A|------------------|
E|------------------|

e|-------------10---|
B|-----8------------|
G|---9---9---9------|
D|-9-------9--------|
A|------------------|
E|------------------|

e|-------7----------|
B|---------8-----8--|
G|---9---------9----|
D|-9---9-----9------|
A|------------------|
E|------------------|

e|-------------7----|
B|---------8-----8--|
G|---9---9---9------|
D|-9---9------------|
A|------------------|
E|------------------|

e|-7---7---7---7-7-------------------------|
B|---7---7---------10-10-10-10b11r10-8---8-|
G|-----------9-9-9-9-------------------9---|
D|-----------------------------------------|
A|-----------------------------------------|
E|-----------------------------------------|

chorus 1
e|---------------------------------------------------|
B|-3-------1-------0---------------------------------|
G|-4-----4-2---2-4-0---2-4-3---3---3-----------------|
D|-5---7---3-------2-------5-7---7---7-8/7/3-3/5-5-5-|
A|-5-------3-------2-------6-----------------3/5-5-5-|
E|-3-------1-------0-------0-----------------1/3-3-3-|

verse 3
e|------------------------------7-7--| x4
B|o---------------------------------o|
G|--7-----7-----7---9-----9-----9-9--|
D|--9-9-9-9-9-9-9-9-9-9-9-9-9-9-9-9--|
A|o---------------------------------o|
E|-----------------------------------|

bridge 3
e|-------------7----|
B|---------8-----8--|
G|---9---9---9------|
D|-9---9------------|
A|------------------|
E|------------------|

e|-------------7---|
B|-----8---------8-|
G|---9---9---9-----|
D|-9-------9-------|
A|-----------------|
E|-----------------|

e|-------------7----|
B|---------8-----8--|
G|---9---9---9------|
D|-9---9------------|
A|------------------|
E|------------------|

e|-------------10---|
B|-----8------------|
G|---9---9---9------|
D|-9-------9--------|
A|------------------|
E|------------------|

e|-------7----------|
B|---------8-----8--|
G|---9---------9----|
D|-9---9-----9------|
A|------------------|
E|------------------|

e|-------------7----|
B|---------8-----8--|
G|---9---9---9------|
D|-9---9------------|
A|------------------|
E|------------------|

e|-7---7---7---7-7-------------------------|
B|---7---7---------10-10-10-10b11r10-8---8-|
G|-----------9-9-9-9-------------------9---|
D|-----------------------------------------|
A|-----------------------------------------|
E|-----------------------------------------|

chorus 2
e|----------------------------------|    strum harder on these chords, use
B|o-3-------------------------------|      pinky/ring finger to accent the 
G|--4-----------------------4-------|      high A and high B throughout
D|--5-----5-----5---7-------5-------|
A|o-5-5-5-5-5-5-5-5-5-5-5-5-5-5-5-5-|
E|--3-3-3-3-3-3-3-3-3-3-3-3-3-3-3-3-|
    ^     ^     ^   ^       ^             

e|---------------------------------|
B|-1-------------------------------|
G|-2---------------2-------4-------|
D|-3-----3-----3---3-------3-------|
A|-3-3-3-3-3-3-3-3-3-3-3-3-3-3-3-3-|
E|-1-1-1-1-1-1-1-1-1-1-1-1-1-1-1-1-|
   ^     ^     ^   ^       ^             

e|---------------------------------|
B|-0-------------------------------|
G|-0---------------2-------4-------|
D|-2-----2-----2---2-------2-------|
A|-2-2-2-2-2-2-2-2-2-2-2-2-2-2-2-2-|
E|-0-0-0-0-0-0-0-0-0-0-0-0-0-0-0-0-|
   ^     ^     ^   ^       ^             

e|------------------------------| x2     
B|-----------------------------o|       
G|-3-----3---3------------------|       use pinky/ring finger to strum the
D|-5---7---7---7-8/7/3-3/5-5-5--|         Bb
A|-6-6-6-6-6-6-6-6-----3/5-5-5-o|
E|-0-0-0-0-0-0-0-0-----1/3-3-3--|
   ^             ^     ^   ^ ^

solo (slight bend after each strum)
e|------------------------------------------------------------------|
B|------------------------------------------------------------------|
G|-444444444444444422222222222222222222222222222222-----------------|
D|-5555555555555555333333333333333322222222222222225555555500000000-|
A|-------------------------------------------------6666666622222222-|
E|------------------------------------------------------------------|

e|------------------------------7-7--|
B|o---------------------------------o| x4
G|--7-----7-----7---9-----9-----9-9--|
D|----9-9---9-9---9---9-9---9-9------|
A|o---------------------------------o|
E|-----------------------------------|

verse 4
e|------------------------------7-7--| x4
B|o---------------------------------o|
G|--7-----7-----7---9-----9-----9-9--|
D|--9-9-9-9-9-9-9-9-9-9-9-9-9-9-9-9--|
A|o---------------------------------o|
E|-----------------------------------|

bridge 4
e|-------------7----|
B|---------8-----8--|
G|---9---9---9------|
D|-9---9------------|
A|------------------|
E|------------------|

e|-------------7---|
B|-----8---------8-|
G|---9---9---9-----|
D|-9-------9-------|
A|-----------------|
E|-----------------|

e|-------------7----|
B|---------8-----8--|
G|---9---9---9------|
D|-9---9------------|
A|------------------|
E|------------------|

e|-------------10---|
B|-----8------------|
G|---9---9---9------|
D|-9-------9--------|
A|------------------|
E|------------------|

e|-------7----------|
B|---------8-----8--|
G|---9---------9----|
D|-9---9-----9------|
A|------------------|
E|------------------|

e|-------------7----|
B|---------8-----8--|
G|---9---9---9------|
D|-9---9------------|
A|------------------|
E|------------------|

e|-7---7---7---7-7-------------------------|
B|---7---7---------10-10-10-10b11r10-8---8-|
G|-----------9-9-9-9-------------------9---|
D|-----------------------------------------|
A|-----------------------------------------|
E|-----------------------------------------|

ending
e|-----------------------------------| x4   use pinky/ring finger to accent
B|o---------------------------------o|        high G, high A, and high B
G|--------------------------4--------|
D|--5---------------7-------5--------|
A|o-5-5-5-5-5-5-5-5-5-5-5-5-5-5-5-5-o|
E|--3-3-3-3-3-3-3-3-3-3-3-3-3-3-3-3--|
    ^               ^       ^             

e|--------|
B|-3------|
G|-4------|
D|-5------|
A|-5------|
E|-3------|
   ^

            
            
Suggest correction
Creating personal tab
Creating personal tab
You can edit any tab online and save it as your Personal.

You can edit, replace or remove any tab part or add personal notes – all changes will be seen only by you.

Personal tabs can be accessed anytime from any device, even offline.
Learn more »
comments
print report bad tab
1 comment total.
0 reply
Fendergod666 40 Sep 25, 2010 02:49 PM

I don't understand how to play that chorus because It sounds nothing like that in the song. Besides that good tab

guest
You may want to rate the tab now too:
select rating
Wanna post a correction for this tab? Suggest correction