Oops, an error
Loading. Please wait.

Pendolous Threads bass

by Incubus
2,130 views 3 this week
2 commentsread comments
1 2 3 4 5
1 last vote to show rating
add to favorites
×
Save as Personal and add changes to this tab that will be seen only by you. Learn more ›
×
You can save this tab as Personal to edit and correct it or add notes. All changes will be seen only by you. Learn more »
launch autoscroll
font size
0
reset
guitar tuner
edit
Autoscroll
slow
fast
+/-
esc
set tempo
stop
Difficulty
intermediate
SONG:Pendolous Threads
ARTIST:Incubus
ALBUM:Light Grenades

intro
|-------------------------------------------------------|
|-7-9-9-9---9-9----9----9----9----9-7-555555555---------|  x2
|-------------------------------------------------------|
|-------------------------------------------------------|

verse
|---------------------------------------------------------|
|-----0-2--2-2--2-2--2--2--2----0-2--2-2--2-2--2--2--2----|
|-0-2------------------------0-2--------------------------|
|---------------------------------------------------------|

|----------------------------------------------------|
|-----0----2-2--2-2--2--2--2--------0----------------|
|-0-2---2-----------------------0-2---2--------------|
|---------------------------------------0-0--0-0—0—0-|

|---------------------------------------------------|
|---5-----------------------------------------------|
|------2-0--0-0--0--0-0-----------------------------|
|-0--3-------------------3-5-7-5-3-3--3-3--3--3-3---|

|--------------------------------------------|
|-----------2--2--2--2------0-2--------------|
|-----------------------0-2------------------|
|-3-5-3-0-3----------------------------------|

bridge 1
|--------------------------------------------|
|-------4------------4-4-4-------------------|
|---------------2-0--------------------------|
|-0-3-0---0-3-0------------------------------|

chorus
|--11-9-------------------------|
|-------9-----------------------|
|---------7-7---7--7--7--7-10----|
|-------------------------------|

|------------------------------------------------------------------------|
|---------------------12-9-9-9-9-9-9-9-9-9-9-9-7-------------------------|
|0-5-6-7---7--7--7--10----------------------------10-10-10-10-10-10-10-10|
|------------------------------------------------------------------------|

bridge2
|-------------------------------------------------------------------------|
|-------------------------------------------------------------------------|
|-7-7-7-7-7—7-7-7-7-7-7-7-9-9-9-9-9-9-9-9-9-9-9-9-10-10-10-10-10-10-10-10-|
|-------------------------------------------------------------------------|


|--------------------------|
|-9-9-9-9-9-9-9-9-9-9-9-9--|
|--------------------------|
|--------------------------|

outro
|--12-10-------------------------|
|-------10-----------------------|
|---------8-8---8--8--8--8-11----|
|--------------------------------|

|--12-10------------------------------------------------------------------|
|-------10-------------------13-10-10-10-10-10-10-10-8--------------------|
|---------8-8---8--8--8--8-11-------------------------11-11-11-11-11-11-11|
|-------------------------------------------------------------------------|

|--------------------------|
|--------------------------|
|--8-8----8--8--8--8-11----|
|--------------------------|

|------------------------------------------------------------------|
|-----------------------13-10-10-10-10-10-10-13-13-13-10-10-10-8-8-|
|0-6-7-8---8--8--8--8-11-------------------------------------------|
|------------------------------------------------------------------|

|------------------------------------------|
|---------------------------------13----15-|
|-11-11-11-11-11-11-11-11-11-11-11---11----|
|------------------------------------------|

|--------------------------|
|--------------------------|
|--8-8----8--8--8--8-11----|
|--------------------------|

|----------------------------------------------------------15------|
|----------15-13--------------13-10-10-10-10-10-10-13-13-13--------|
|0-6-7-8--------15-13-11-8-11--------------------------------------|
|------------------------------------------------------------------|

|------------------------------------------|
|---------------------------------13----15-|
|-11---------------------------------11----|
|------------------------------------------|

I think that this tab isn't correctly at 100% but its sound is good.
Sorry for my bad english....
If you find some mistakes please notify me at quicksand83@hotmail.it

Song part:

Introduction guitar..
2x intro (with bass)
1x verse
1x bridge1
2x chorus
1x verse
2x bridge1
2x chorus
4x bridge1
4x bridge2
3x chorus
1x outro

            
            
Suggest correction
Creating personal tab
Creating personal tab
You can edit any tab online and save it as your Personal.

You can edit, replace or remove any tab part or add personal notes – all changes will be seen only by you.

Personal tabs can be accessed anytime from any device, even offline.
Learn more »
Give kudos to tab author, rate the tab!
1 2 3 4 5
comments
print report bad tab
2 comments total.
0 reply
Fried Cheese 40 Oct 12, 2007 05:16 PM

Thank you so much.

0 reply
andi_mk 31 Nov 11, 2010 01:38 PM

Im not sure if this correction is exactly how its played but sounds sweet

Chorus

|--11-9---------------------------------------------------------------|
|-------9---------------------------------------12-7-7-7-7-7-etc------|
|---------10-7---7-7--7-------5h7-7------5h7-10-----------------------|
|-------------------------5h7--------5h7------------------------------|

guest
Wanna post a correction for this tab? Suggest correction