Oops, an error
Loading. Please wait.
We have an official Stellar tab made by UG professional guitarists. Check out the tab »
×
by Incubus
31,801 views 18 this week
3 commentsread comments
1 2 3 4 5
x 15
add to favorites
×
Save as Personal and add changes to this tab that will be seen only by you. Learn more ›
×
You can save this tab as Personal to edit and correct it or add notes. All changes will be seen only by you. Learn more »
launch autoscroll
font size
0
reset
guitar tuner
backing track
0:00
0:00
edit
Autoscroll
slow
fast
+/-
esc
set tempo
stop
Author
Artist: Incubus
Song: Stellar
Album: Make Yourself
Tabbed By: Dromar


Tuning- E, A, D, G
h= hammer on 
p= pull off
/= slide down

First Verse
G--------------------------------   
D--------------------------------
A--------------------------------
E---55-----99---------55-------99

Prechorus
G--------------------------------   
D--------------------------------
A---5-55-55-5555-222-2-222-2222--
E--------------------------------

1st Chorus
G-----------------------------------------------  
D--------------6-7-6----6-------------6-7-6--6-7
A-----------4--------77------------4--------7---
E---55-55------------------55-55----------------

Interlude
G---------------------------------------------- 
D-----------7-7-7--------7--9h10p9-------------
A--00------7-7-7------------------9h10p9-------
E------------------5/--------------------------

G----------------------------------------------
D-----------7-7-7--------7--9h10p9/------------
A--00------7-7-7-------------------------------
E------------------5/--------------------------

Second Verse
G--------------------------------------------  
D--------------------------------------------
A---------------------------------------11-12
E---55-----99---------55-------99----12------

Part of Chorus before bridge
G---------------------------------------------- 
D----------------------------------------------
A----------0-4-0------------------0-4-0--------
E---55-55-------4-0-0-4----55-55-------4-0-4-5

Bridge (these are just the root notes feel free to fill in with repeated notes)
G----------------------------------------  
D----------------------------------------
A----------------------------------------
E---5----------3------------0-----------3
before last chorus repeat the 3rd fret of E

Last Chorus
G-----------------------------------------------  
D--------------6-7-6----6-------------6-7-6--6-7
A-----------4--------77------------4--------7---
E---55-55------------------55-55----------------

Last part of chorus
G---------------------------------------------- 
D----------------------------------------------
A----------0-4-0------------------0-4-0--------
E---55--55-------4-0-0-4----55-55-------4-0-4-5


Order:
1st Verse 2x
Prechorus 1x
1st Chorus 2x
Interlude 1x
Second Verse 4x
Prechorus 1x
Regular Chorus 2x
Before Bridge Chorus 1x
Bridge 2x
Regular Chorus 2x
Last Part of Chorus 2x
repeat last part as needed

any questions e-mail me at dromar25@hotmail.com

            
            
Suggest correction
Creating personal tab
Creating personal tab
You can edit any tab online and save it as your Personal.

You can edit, replace or remove any tab part or add personal notes – all changes will be seen only by you.

Personal tabs can be accessed anytime from any device, even offline.
Learn more »
comments
print report bad tab
3 comments total.
+3 reply
Dromar 70 Mar 21, 2003 07:00 PM

urgh i'm sorry

the chorus parts are wrong

G-------------------
D------------66----6---
A--------4-4----77-------
E-55-55------------------
___________________________
G-------------------
D------------66---6-7---
A--------4-4----7-------
E-55-55------------------

and then the second parts of the chorus is

G-------------------
D-------------------
A--------4-4-----------
E-55-55------4-4-0-0-4--
__________________________
G-------------------
D---------------
A--------4-4---------0--
E-55-55------4-4-0-4-----

ok there ya go, and i am really sure that its right

0 reply
mister bass guy 10 Aug 14, 2007 12:51 PM

the bass in the bridge is amazing live

0 reply
gabefyasko 10 Mar 14, 2013 07:51 PM

on the chorus the last 6 should be a 7

guest
You may want to rate the tab now too:
select rating
Wanna post a correction for this tab? Suggest correction