Oops, an error
Loading. Please wait.

Summer Romance Anti Gravity Love Song tab

version 4
version 4
by Incubus
26,001 views 9 this week
4 commentsread comments
1 2 3 4 5
x 13
add to favorites
×
Save as Personal and add changes to this tab that will be seen only by you. Learn more ›
×
You can save this tab as Personal to edit and correct it or add notes. All changes will be seen only by you. Learn more »
launch autoscroll
font size
0
reset
how to read this tab
guitar tuner
edit
Autoscroll
slow
fast
+/-
esc
set tempo
stop
Author
Unregistered
Title: Anti-Gravity Love Song (w/ sax solo arranged for guitar)
Artist: Incubus
Ablum: S.C.I.E.N.C.E.

[INTRO RIFF] this is the normal pattern of the intro riff, but there are some muted notes
             in between.. just try to adopt the feel of the rhythm..

                                                             [RIFF A]
e|-----------------------------------------------------------|-------------------|
B|-----------------------------------------------------------|-------------------|
G|-----------------------------------------------------------|-------------------|
D|-----------------------------------------------------------|-------------------|
A|-x-x-x--x-x-2h5-2-0h2-------2h5-2-0h2-------2h5-2-0h2------|-2h5-2-0h2.......--|
E|----------------------2-2h5-----------3-3h5-----------2-2h5|-------------------|

 [RIFF B] change with [RIFF A], when the bassline kicks in...
e|------------------|
B|------------------|
G|------------------|
D|------------------|
A|-2h5-0h2----------|
E|---------3h5-0h2--|

[INTRO LICK]                           [VERSE] the lick in the verse part, i think,
                                               has an octave higher along.. but i don't use it.
e|-7-10-7------------------------------|--7------------------------|
B|--------9----------------------------|--7------------------------|
G|----------7-9-----7---9---7/9-9-7-7--|--7---7-9-9/11-9-7h9-7-----|
D|--------------7p6---7---7------------|--7--------------------9---|
A|-------------------------------------|--9------------------------|
E|-------------------------------------|--7------------------------|

[REFRAIN]                      
these are the chord progressions used for the refrain
it's all there is to it.. just figure it out...                          
e|-7--5--6--7--|--7--|--7--|
B|-8--7--8--7--|--7--|--7--|
G|-7--6--6--7--|--7--|--7--|
D|-9--7--8--7--|--5--|--7--|
A|-7--5--7--9--|-----|--9--|
E|-------6--7--|-----|--7--|

[CHORUS]
repeat the intro riff, then these chord progression..
e|------------------------7--|
B|------------------------7--|
G|-3-x-x-x-3--------7-6---7--|
D|-5-x-x-x-5--4-2-4-7-6---7--|
A|-5-x-x-x-5--4-2-4-5-4---9--|
E|-3-x-x-x-3--2-0-2-------7--|

[SOLO]
sax arranged for guitar
                                     VVV              VVV          VVV             VVV
e|---------------------------------10-9--|-------9h10-9---------------------------------|
B|-------------------------10---10-------|-10-12----------12-11-10-9---------10h12-9----|
G|-------------7---7-9-7-9----9----------|-----------------------------11-12------------|
D|-------7---7---7-----------------------|----------------------------------------------|
A|-----7---7-----------------------------|----------------------------------------------|
E|--10-----------------------------------|----------------------------------------------|

                                                             VVV                
e|-------------------------------------------------|-------------------------------------------|
B|----------------------9h10p9p7---7---------------|------10---------------10------------------|
G|-11-9-10-11p7---9p6------------9---9-7-6-7---9---|--9-7----9---7-9-9p7-9----9-9b(1)p7---9-7--|
D|--------------9-----7----------------------9---7-|------------------------------------9------|
A|-------------------------------------------------|-------------------------------------------|
E|-------------------------------------------------|-------------------------------------------|

e|---------------------------------------------|-------------------------------------------------------|
B|---------------------------------------------|-------------------------------------------------------|
G|---------------------------------------------|-----------------9---------------------/9----11p10p9---|
D|---------------------------------------------|---------9-11-12---12-11-11-9-------------11---------11|
A|14-12-14-9/11-14-11-11-14-11-11-14-9/11-14-9-|-9-11-12----------------------12-11-9------------------|
E|---------------------------------------------|-------------------------------------------------------|

                             VVV
e|-------------------------9---------------------------------------------|
B|------10---------------10--9----7---7----------------------------------|
G|-9------9---------9---9-----------9---9-7-6-7------------------9-6-----|
D|--12-------12-------11------------------------9-7---7-9----7-9-----7---|
A|-------------12-----------------------------------9------------------9-|
E|-----------------------------------------------------------------------|

                                                                                  VVV
e|------------------------------------------------------------------------------------|
B|----------------10-12----12-10------10------------------10-12b(1)-------------------|
G|-----------9-11-------11-------11-9----9/11-9----------9------------7-9-7-6-7/9-6---|
D|------9-11------------------------------------12-----11-----------------------------|
A|-9-12----------------------------------------------12-------------------------------|
E|------------------------------------------------------------------------------------|

*end of solo

[lesson]solo part of sax, i've arranged for guitar. this is, i believe, 99% accurate.
        it took me an hour for this one. there are some parts of the solo that's hard
        to play which needs a bit of sweeping & rolling (if you're not aware of that,
        try to check out john petrucci lessons!) anyway, one instance from the solo is
        at the 1st bar. what i did to play this easily it to pick every 3-note pattern
        in an alternate-picking manner (which i think was called in/out-of-string-picking by
        john petrucci, i can't hardly remember). to explain further, pick the 1st note 
        with a downstroke, then the 2nd note with an upstroke, then the 3rd note with an upstroke..
        and so on.. until you came down with the last 4 notes (i'm talkin about the 1st bar,
        i hope you still follow).. you can then try to sweep it down. and on the left hand,
        your index finger does the rolling, in that way the notes wouldn't sound as if
        they were being plucked as chords. and one more thing, not only the first bar
        of the solo needs some basic sweeping & rolling, there are also some parts that
        needs straight sweep. 
        anyway, if you get to practice this perfectly, try to add some light distortion
        on your strings then see what it would sound like..
        i hope this lesson quite gave you a help.. if not... *hands up*

************************************

LEGEND:

|  x Muted note/string
|  h Hammer-on
|  p Pull-off
|  / Slide
|  V Vibrato
|  b Bend-fullstep

************************************

            
            
Suggest correction
Creating personal tab
Creating personal tab
You can edit any tab online and save it as your Personal.

You can edit, replace or remove any tab part or add personal notes – all changes will be seen only by you.

Personal tabs can be accessed anytime from any device, even offline.
Learn more »
comments
print report bad tab
4 comments total. Showing first comments.
+2 reply
MyFuriousNipple 31 Aug 09, 2006 06:16 PM

Now this is a a damn good tab.

+1 reply
SimpleMan008 31 Apr 26, 2008 11:23 AM

very, very nice.

however you did not include the guitar fill at the end of the second verse that leads in to the chorus.

but thats just me being picky.

0 reply
Holy. 50 Jan 25, 2009 01:05 PM

Everything after that sixth measure of the solo is unreadable to me.

guest
Wanna post a correction for this tab? Suggest correction