Oops, an error
Loading. Please wait.

The Warmth bass

version 3
version 3
by Incubus
1,514 views 1 this week
no commentswrite comment
1 2 3 4 5
2 more votes to show rating
add to favorites
×
Save as Personal and add changes to this tab that will be seen only by you. Learn more ›
×
You can save this tab as Personal to edit and correct it or add notes. All changes will be seen only by you. Learn more »
launch autoscroll
font size
0
reset
guitar tuner
backing track
0:00
0:00
edit
Autoscroll
slow
fast
+/-
esc
set tempo
stop
Author
Difficulty
The Warmth Bass Tab

It's a very fun song to play, but it was pretty hard to tab it out since the guitar was 
than the bass. i dunno if this is right, hopefully it is. This is my first tab, so, have 
The chorus, I'm not sure about, but the rest sounds fine.

Legend:
h - hammer-on (for example: 7h9)
p - pull-off (for example: 7p9)
b - bend (for example: 10b)
~ - hold note (for example: 7~)
\ - slide down from one fret to another (for example: 10/7)
/ - slide up from one fret to another (for example: 10\12)
/#\ - slide up and down, # is fret (for example: /3\)
x - muted/ghost note

The Tab!

Intro: 0:28

G|--------------------------------|
D|--------------------------------|  ----> x3
A|0h10*/7-x7-7-0h333-3------------|
E|--------------------33-x3-3-00-0|

*0h10 can also be played as x10, it was hard to hear, but both sound alright. personally 
play 0h10.

Guitar Bit: 0:55

G|---------------|
D|---------------|
A|---------------|
E|0~~---0~~/18\--|

Verse: Exactly like Intro

G|--------------------------------|
D|--------------------------------|  ----> x4
A|0h10*/7-x7-7-0h333-3------------|
E|--------------------33-x3-3-00-0|

Chorus:

G|----------------------|
D|----------------------|  -------> x3
A|7~~7*-0h33-3----------|
E|------------33-x3-3-00|

*either 7~~7 or 7-7-7. it works either way.

Then:
Verse: x4
Chorus: x4

Bridge: The beat mostly goes with the drums

G|---------------------------------------------------------|
D|---------------------------------------------------------| ----x2
A|22-2-22-22-2-2-33-3-33-33-3-3-22-2-22-22-2-2-55-5-55-5-5*|
E|---------------------------------------------------------|

*the second time it goes like "A|555-555-555|"

Then:
Chorus: x4
Verse: Till the end of the song


Have fun with it!

            
            
Suggest correction
Creating personal tab
Creating personal tab
You can edit any tab online and save it as your Personal.

You can edit, replace or remove any tab part or add personal notes – all changes will be seen only by you.

Personal tabs can be accessed anytime from any device, even offline.
Learn more »
Give kudos to tab author, rate the tab!
1 2 3 4 5
comments
print report bad tab
guest
You may want to rate the tab now too:
select rating
Wanna post a correction for this tab? Suggest correction