Oops, an error
Loading. Please wait.

Boom Boom Boom chords

by Indaqo
202 views 6 this week
no commentswrite comment
1 2 3 4 5
3 more votes to show rating
add to favorites
×
Save as Personal and add changes to this tab that will be seen only by you. Learn more ›
×
You can save this tab as Personal to edit and correct it or add notes. All changes will be seen only by you. Learn more »
launch autoscroll
font size
0
reset
transpose
0
reset
display chords
guitar tuner
edit
Autoscroll
slow
fast
+/-
esc
set tempo
stop
Author
Difficulty
About this tab version
Easy song to play. Hope you enjoy. Was this info helpful? Yes No
Strumming Is this strumming pattern correct? Yes No
Whole Song 120 bpm
1
&
2
&
3
&
4
&
Listen
[Verse 1]
Gm
Extra strength 
Cm
In my legs 
Bb                 D
Keeps them moving on 
Gm
I keep my mind 
Cm
On the game 
Bb           D
I stay careful
Gm
You're the man
Cm
Who can turn me on
Bb         
Something's burning
D
Deep inside my soul
Gm
Love is knocking
Cm
When you look at me
Bb                D
I go boom boom boom
Gm         Cm
Boy you touch me
Bb         D  
Like no one else before
Gm
You changed my life
Cm
Your worth is gold
Bb                    D
That's why I love you so

[Chorus]
e|---------------------------------------------------------------------------------|
B|---------------------------------------------------------------------------------|
G|---------------------------------------------------------------------------------|
D|8--7-----8--7----8--7------8--7--------------------------------------------------|
A|-------10-------10------10------10---------------8-----------------------8-------|
E|----------------------------------10--10--10--10-----10--10--10--10--10----------|

e|---------------------------------------------------------------------------------|
B|---------------------------------------------------------------------------------|
G|---------------------------------------------------------------------------------|
D|8--7-----8--7----8--7------8--7--------------------------------------------------|
A|-------10-------10------10------10---------------8-----------------------8-------|
E|----------------------------------10--10--10--10-----10--10--10--10--10----------|

[Verse 2]
Gm
I feel you
Cm
By my side
Bb           D
Everywhere I go
Gm
Lead me right
Cm
On my way
Bb            D
And I'm thankful
Gm
Call my name
Cm
I will cry no more
Bb
Take me there
D
I won't let you go
Gm
Love is knocking
Cm
When you look at me
Bb             D
I go boom boom boom

[Chorus]
e|---------------------------------------------------------------------------------|
B|---------------------------------------------------------------------------------|
G|---------------------------------------------------------------------------------|
D|8--7-----8--7----8--7------8--7--------------------------------------------------|
A|-------10-------10------10------10---------------8-----------------------8-------|
E|----------------------------------10--10--10--10-----10--10--10--10--10----------|

e|---------------------------------------------------------------------------------|
B|---------------------------------------------------------------------------------|
G|---------------------------------------------------------------------------------|
D|8--7-----8--7----8--7------8--7--------------------------------------------------|
A|-------10-------10------10------10---------------8-----------------------8-------|
E|----------------------------------10--10--10--10-----10--10--10--10--10----------|

[Verse 3]
Gm         Cm
Boy you touch me
Bb         D  
Like no one else before
Gm
You changed my life
Cm
Your worth is gold
Bb                    D
That's why I love you so

[Chorus]
e|---------------------------------------------------------------------------------|
B|---------------------------------------------------------------------------------|
G|---------------------------------------------------------------------------------|
D|8--7-----8--7----8--7------8--7--------------------------------------------------|
A|-------10-------10------10------10---------------8-----------------------8-------|
E|----------------------------------10--10--10--10-----10--10--10--10--10----------|

e|---------------------------------------------------------------------------------|
B|---------------------------------------------------------------------------------|
G|---------------------------------------------------------------------------------|
D|8--7-----8--7----8--7------8--7--------------------------------------------------|
A|-------10-------10------10------10---------------8-----------------------8-------|
E|----------------------------------10--10--10--10-----10--10--10--10--10----------|

            
            
Suggest correction
Creating personal tab
Creating personal tab
You can edit any tab online and save it as your Personal.

You can edit, replace or remove any tab part or add personal notes – all changes will be seen only by you.

Personal tabs can be accessed anytime from any device, even offline.
Learn more »
Give kudos to tab author, rate the tab!
1 2 3 4 5
comments
print report bad tab
guest
You may want to rate the tab now too:
select rating
Wanna post a correction for this tab? Suggest correction