Oops, an error
Loading. Please wait.

Fixing A Broken Heart tab

version 3
version 3

Whole song

2,296 views 18 this week
no commentswrite comment
1 2 3 4 5
3 more votes to show rating
add to favorites
×
Save as Personal and add changes to this tab that will be seen only by you. Learn more ›
×
You can save this tab as Personal to edit and correct it or add notes. All changes will be seen only by you. Learn more »
launch autoscroll
font size
0
reset
how to read this tab
guitar tuner
edit
Autoscroll
slow
fast
+/-
esc
set tempo
stop
Author
Difficulty
-------------------------------------------------------------------------------
          Fixing a Broken Heart(Instrumental) - Indecent Obsession
-------------------------------------------------------------------------------
Tabbed by: Jimwell Balatero
Email: tony_jaapy@Yahoo.com

************************************
It is 100% accurate and sure because I'm the one who made it.
It is not like the Original, this is the INSTRUMENTAL VERSION.
The Guitar is the one who sings.
This best suit to those who dont know how to sing.
************************************
Note: 
   -Advisable to use your FOUR FINGER
   -The Chords are based on the BASS NOTES.
   -Finger Stretching is needed.

************************************
| /   slide up
| \   slide down
| h   hammer-on
| p   pull-off
| ~   vibrato
| +   harmonic
| x   Mute note
| b   Bend
| pb  Pre-bend
| br  Bend release
| pbr Pre-bend release
| brb Bend release bend
************************************
Tuning: Standard 

Intro:
          A
e|------------------]
B|-----2---3---0--2-]
G|-----2---2---2--2-]
D|---2---2---2----2-]
A|-0--------------0-]
E|------------------]

Verse 1 & 2:
            A                  E             F#m             Bm        A
e|------------------------]---------]--------------------]---------]--------|
B|------0-0h2-2-----------]---------]---------------2--3-]---3---3-]-2-0---0|
G|----2-------------2-2h4-]-----1h2-]---------2--4-------]---------]-2---2--|
D|--2-------------2-------]---------]-----4--------------]-----4---]--------|
A|--------------0---------]---2-----]---4--4-------------]-2-------]-0------|
E|------------------------]-0-------]-2-------2----------]---------]--------|
    There was nothing to say....
            E               A         E            F#m             Bm
e|--------------------0-]--------]---------]------------------]----------|
B|--------------0-2-3---]------0-]---3---3-]-------5--3--2--2-]---3---3--|
G|-------1h2-1----------]---2----]---------]-------2-----2----]----------|
D|----2-----------------]-----2--]-----2---]---4--------------]-----4----|
A|---2-2----------------]-0------]---------]--4-4-------------]-2--------|
E|-0--------------------]--------]-0-------]-2-----2----------]----------|

      A          D
e|---------]-------2--]
B|-2-0-----]-----3-3--]
G|-2---2-2-]---2---2--]
D|---------]-0-----0--]
A|-0-------]----------]
E|---------]----------]

Chorus:
        E             A         E         F#m            A
e|-------------0-]-----0---]-----0---]------5/7-5-]------------]-----0---|
B|-0-0-0-0-2-3---]-----2---]-----0---]--2-5-------]------------]-----3---|
G|---------------]-------2-]-----1---]--2---------]---6----7\4-]-------4-|
D|---------------]---2-----]-------2-]------------]-----7--7\4-]---4-----|
A|---------------]-0-------]---2-----]------------]------------]-2-------|
E|-----------0---]---------]-0-------]--2---------]-5----------]---------|
  You Really Know were to start....      ,        Fixing A Broken Heart....

            A                 E         A          E            F#m
e|-----0-----------------]-------0-]-------0-]-----------]---2-3-2h3p2--|
B|-----2-------0h2-0---0-]---2-3---]---2-3---]-------2\5-]-5------------|
G|-------2-2-2-2-----2---]---------]---------]-----------]-2------------|
D|---2-------------------]---------]---------]-----2-----]--------------|
A|-0-----------0---------]---------]-0-------]---2-------]--------------|
E|-----------------------]-0-------]---------]-0---------]-2------------|

     F#m         Bm           A                 E
e|----------]----------]-------------]----------------------]
B|-----5--3-]-----3--4-]---3-2-0h2p0-]------------0-2-2\3-3-]
G|----------]----------]-------------]------1h2-1-----------]
D|----------]---4------]-------------]----2-----------------]
A|---4------]-2--------]-0-----------]---2-2----------------]
E|-2--------]----------]-------------]-0--------------------]

      A         E        F#m        E   
e|-----0---]-----0---]-----2---]-----0---]
B|-----2---]-----0---]-----2---]-----0---]
G|-------3-]-------1-]-------2-]-------1-]
D|---2-----]---------]---------]---------]
A|-0-------]---2-----]---4-----]---2-----]
E|---------]-0-------]-2-------]-0-------]

Intro/Ending of Chorus:

          A
e|------------------]
B|-----2---3---0--2-]
G|-----2---2---2--2-]
D|---2---2---2----2-]
A|-0--------------0-]
E|------------------]


Hope you'll enjoy it!.
visit this URL for my VIDEO
http://www.youtube.com/watch?v=Izu_YtReaDU

            
            
Suggest correction
Creating personal tab
Creating personal tab
You can edit any tab online and save it as your Personal.

You can edit, replace or remove any tab part or add personal notes – all changes will be seen only by you.

Personal tabs can be accessed anytime from any device, even offline.
Learn more »
Give kudos to tab author, rate the tab!
1 2 3 4 5
comments
print report bad tab
guest
You may want to rate the tab now too:
select rating
Wanna post a correction for this tab? Suggest correction