Oops, an error
Loading. Please wait.

Oblivion From The Fault In Our Stars tab

by Indians
2,375 views 9 this week
no commentswrite comment
1 2 3 4 5
1 last vote to show rating
add to favorites
×
Save as Personal and add changes to this tab that will be seen only by you. Learn more ›
×
You can save this tab as Personal to edit and correct it or add notes. All changes will be seen only by you. Learn more »
launch autoscroll
font size
0
reset
how to read this tab
guitar tuner
edit
Autoscroll
slow
fast
+/-
esc
set tempo
stop
Author
Difficulty
(/) Slide Up  (\) Slide Down  (h) Hammer On  (p) Pull Off  (b) Bend (r) Release (v) Vibrato
Note!

This is the song in The Fault in Our stars soundtrack,
and after looking online everywhere for an accurate tab, I just had to figure
it out my self.
The Tuning is different for this song. It's in G. Much like a standard Banjo with
E--TUNED TO--d
B IS B
G IS G
D IS D
A IS G
E IS G

Here is the original song link.

https://www.youtube.com/watch?v=Kl3wbELi840

I believe you repeat these same 5 sets throughout the song.
 My first tab ever! hope you enjoy


Stave 1:

E|-------------------5----------------------------------5-------------------|
B|---------7--------------7---------7---------7--------------7---------7----|
G|--------------7--------------7-------------------7--------------7---------|
D|----0----------------------------------0----------------------------------|
A|--------------------------------------------------------------------------|
E|--------------------------------------------------------------------------|

Stave 2:

E|-------------------5----------------------------------5-------------------|
B|---------7--------------7---------7---------7--------------7---------7----|
G|--------------7--------------7-------------------7--------------7---------|
D|----5----------------------------------5----------------------------------|
A|--------------------------------------------------------------------------|
E|--------------------------------------------------------------------------|

Stave 3:

E|-------------------0----------------------------------0-------------------|
B|---------7--------------7---------7---------7--------------7---------7----|
G|--------------7--------------7-------------------7--------------7---------|
D|----9----------------------------------9----------------------------------|
A|--------------------------------------------------------------------------|
E|--------------------------------------------------------------------------|

Stave 4:

E|-------------------0----------------------------------0-------------------|
B|---------7--------------7---------7---------7--------------7---------7----|
G|--------------7--------------7-------------------7--------------7---------|
D|----7----------------------------------7----------------------------------|
A|--------------------------------------------------------------------------|
E|--------------------------------------------------------------------------|

Stave 5:

E|----5----4----2----0--------------|
B|------------------------0---------|
G|-----------------------------2----|
D|----------------------------------|
A|----------------------------------|
E|----------------------------------|

Repeats throughout song

            
            
Suggest correction
Creating personal tab
Creating personal tab
You can edit any tab online and save it as your Personal.

You can edit, replace or remove any tab part or add personal notes – all changes will be seen only by you.

Personal tabs can be accessed anytime from any device, even offline.
Learn more »
Give kudos to tab author, rate the tab!
1 2 3 4 5
comments
print report bad tab
guest
You may want to rate the tab now too:
select rating
Wanna post a correction for this tab? Suggest correction