Oops, an error
Loading. Please wait.

Heavyweight solo tab

version 4
version 4

Interactive

640 views 24 this week
no commentswrite comment
1 2 3 4 5
2 more votes to show rating
add to favorites
×
Save as Personal and add changes to this tab that will be seen only by you. Learn more ›
×
You can save this tab as Personal to edit and correct it or add notes. All changes will be seen only by you. Learn more »
launch autoscroll
font size
0
reset
how to read this tab
guitar tuner
backing track
0:00
0:00
edit
Autoscroll
slow
fast
+/-
esc
set tempo
stop
Artist: Infected Mushroom
Song: Heavyweight
Album: Vicious Delicious
Tabbed by: gustavoaraujo999@hotmail.com
Tuning: Standard (EADGBE)

**A guitar with 24 frets is preferable. If you don't have one just jump back an octave.
**Solo starts at 4:47

[4:47]
e|---------------|---------------|---------------|---------------|
B|---------------|---------------|---------------|---------------|
G|---------------|---------------|---------------|---------------|
D|---4-5-4-2---2-|---4-5-4-2---2-|---4-5-4-2---2-|---4-5-4-2---2-|
A|-2---------2---|-2---------2---|-2---------2---|-2---------2---|
E|---------------|---------------|---------------|---------------|
 
e|---------------|---------------|---------------|---------------|
B|---------------|---------------|---------------|---------------|
G|---------------|---------------|---------------|---------------|
D|---4-5-4-------|---4-5-4-------|---3-5-3-------|---3-5-2-------|
A|-2-------5---5-|---------5---5-|---------5---5-|---------3---3-|
E|-----------3---|-3---------3---|-3---------5---|-5---------5---|

e|---------------|---------------|---------------|---------------|
B|---7-8-7-------|---7-8-7-------|---7-8-7-----*-|---7-8-7-------|
G|---------9---9-|---------9---9-|---------9---9-|---------9---9-|
D|-9---------9---|-9---------9---|-9---------9---|-9---------9---|
A|---------------|---------------|---------------|---------------|
E|---------------|---------------|---------------|---------------|
 
e|---------------|---------------|---------------|---------------|
B|---7-8-7-------|---7-8-7-------|---6-8-6-------|---6-8-5-------|
G|---------7---7-|---------7---7-|---------7---7-|---------5---5-|
D|-9---------5---|-5---------5---|-5---------7---|-7---------7---|
A|---------------|---------------|---------------|---------------|
E|---------------|---------------|---------------|---------------|


e|-------19-18-15-------|---------19-18-15-------|-------19-18-15-------|------19-18-15----22b24-|
B|----17----------17----|------17----------17-\\-|-//-17----------17----|---------------17-------|
G|-16----------------16-|-(16)-------------------|-------------------15-|-(15)-------------------|
D|----------------------|------------------------|----------------------|------------------------|
A|----------------------|------------------------|----------------------|------------------------|
E|----------------------|------------------------|----------------------|------------------------|

e|----------|---------------------------------------|
B|----12-15-|-(15)-12----------12-15-12----------12-|
G|-12-------|---------14-12-14----------14-12-14----|
D|----------|---------------------------------------|
A|----------|---------------------------------------|
E|----------|---------------------------------------|

e|----------------------------------------------------------------|
B|-15-12----------15-12----------15-12----------15-12----------12-|
G|-------14-12-14-------14-12-14-------14-12-14-------14-12-14----|
D|----------------------------------------------------------------|
A|-------------------------------fast-----------------------------|
E|----------------------------------------------------------------|

e|----------------------------------|-------------------------------------------------|
B|----------15----------------15----|-------------15----------------15----------------|
G|-16-14-16----16-14----14-16----16-|-14----14-16----16-14----14-16----16-14----14-16-|
D|-------------------17-------------|----17----------------17----------------17-------|
A|----------------------------------|-------------------------------------------------|
E|----------------------------------|-------------------------------------------------|

e|----------------------------------------------------|-17~--19~---|
B|-18-17-15-----18-17-15-----18-17-15-----18-17-15----|------------|
G|----------14-----------14-----------14-----------14-|------------|
D|----------------------------------------------------|------------|
A|----------------------------------------------------|------------|
E|----------------------------------------------------|------------|

e|-22b24br22--19--17--15--17----15--14--15---------------|
B|------------------------------------------17-----------|
G|-------------------------------------------------------|
D|-------------------------------------------------------|
A|-------------------------------------------------------|
E|-------------------------------------------------------|

e|-22b24br22--19--17--15--17---b19br17--15---------------|
B|------------------------------------------17-\\\-------|
G|-------------------------------------------------------|
D|-------------------------------------------------------|
A|-------------------------------------------------------|
E|-------------------------------------------------------|

e|----12--------------------------------------------------------------------------------|
B|---12-------------------12------------------------------------------------------------|
G|--12---14--12----------12--14--12--------14b16br14--12--------------------------------|
D|-14-----------14-----14-----------14-------------------14----12-14-12-----------------|
A|----------------------------------------------------------------------12b14br12-10-12-|
E|--------------------------------------------------------------------------------------|

e|-------------------------------------------------|
B|-------------------------------------------------|
G|-------------------------------------------------|
D|-12b14br12---------------------------------------|
A|-----------14-10----12--12b14-b14---10-----------|
E|--------------------------------------12-\dive\--|


[5:58]
e|-------------------|-----------------|-----------------|----------------------|
B|-------------------|-----------------|-----------------|----------------------|
G|-----------0-------|-----------------|-------------0---|----------------------|
D|---------------2---|---------4-----0-|---------2-------|---2---5-4-2----------|
A|------2----------2-|-----3-------2---|-----3-----------|-3---3-------2--------|
E|-0-----------------|-3---------------|-0---------------|----------------------|

e|-----------------|-----------------|-----------------|---------------------|
B|-----------------|-----------------|-----------------|---------------------|
G|-------------0---|-----------------|---------0-------|----------2--4-------|
D|---------2-------|----------4---0--|-------------2---|----2----------------|
A|-----2-----------|---3-------------|-----3-----------|------3-x------------|
E|-0---------------|-3---3-----------|-----------------|--5------------------|

e|-------------------|-----------------|-----------------|----------------------|
B|-------------------|-----------------|-----------------|----------------------|
G|-----------0-------|-----------------|-------------0---|----------------------|
D|---------------2---|---------4-----0-|---------2-------|---2---5-4-2----------|
A|------2----------2-|-----3-------2---|-----3-----------|-3---3-------2--------|
E|-0-----------------|-3---------------|-0---------------|----------------------|

e|-----------------|-----------------|-//12\\-----//14\\----//15\\----//19\\-|
B|-----------------|-----------------|---~~---------~~--------~~--------~~---|
G|-------------0---|-----------------|---------------------------------------|
D|---------2-------|----------4---0--|---------------------------------------|
A|-----2-----------|---3-------------|---------------------------------------|
E|-0---------------|-3---3-----------|---------------------------------------|



[6:24]
e|----------14-15-12\dive\------------14-15--12---22b24---------------------|
B|-17----17------------------------17----~~---------------------------------|
G|----16------------------------16------------------------------------------|
D|--------------------------------------------------------------------------|
A|--------------------------------------------------------------------------|
E|--------------------------------------------------------------------------|

e|----------14-15-12-\-10-------------14-15--------15\-------15------15-----|
B|-17----17------------------------17----~~----/17-------/17-----/17--------|
G|----16------------------------16------------------------------------------|
D|--------------------------------------------------------------------------|
A|--------------------------------------------------------------------------|
E|--------------------------------------------------------------------------|

e|----------14-15-12\dive\--------------------17------18------19------------|
B|-17----17-----------------------------------~~------~~------~~------------|
G|----16-----------------------0-/-/-/-24-----------------------------------|
D|-------------------------------------~~-----------------------------------|
A|--------------------------------------------------------------------------|
E|--------------------------------------------------------------------------|

e|-----19\--------19\------19\------19\--------19-24-----19-24-----19-24---19-24-26---24-26-27-|
B|-/20--------/20------/20------/20---------20--------20--------20-----------------------------|
G|---------------------------------------------------------------------------------------------|
D|---------------------------------------------------------------------------------------------|
A|---------------------------------------------------------------------------------------------|
E|---------------------------------------------------------------------------------------------|

e|----------14-15-12\dive\------------14-15--12------15-17------------------|
B|-------17-----------------/17----17----~~-------17----~~------------------|
G|----16------------------------16------------------------------------------|
D|--------------------------------------------------------------------------|
A|--------------------------------------------------------------------------|
E|--------------------------------------------------------------------------|

e|----------14-15-12-\-10-------------14-15---12-14-15---12-14-15---12-14-15|
B|--7----17------------------17----17----~~---------------------------------|
G|----16------------------------16------------------------------------------|
D|--------------------------------------------------------------------------|
A|--------------------------------------------------------------------------|
E|--------------------------------------------------------------------------|

e|-12-14-15-14--12-14-15-14--12-14-15-/17--15------14---12\dive\------------|
B|-----------------------------------------~~-------------------------------|
G|-----------fast-----------------------------------------------------------|
D|--------------------------------------------------------------------------|
A|--------------------------------------------------------------------------|
E|--------------------------------------------------------------------------|

e|--------------------------------------------------------------------------|
B|------15------------------------------------------------------------------|
G|-/14-----14-12-----12h14p12-----------------------------------------------|
D|---------------14-----------14\dive\--------------------------------------|
A|--------------------------------------------------------------------------|
E|--------------------------------------------------------------------------|

e|-------------------------------------12-----------------------------------|
B|------7-8------8-----8------10b12-----------15b17-b17-b17-b17-b17-br-15---|
G|----9---~---9-----9-----9-------------------------------------------------|
D|-/9-----------------------------------------------------------------------|
A|--------------------------------------------------------------------------|
E|--------------------------------------------------------------------------|

e|--------------------------------------------------------------------------|
B|-15---12---15--------15---------------------------------------------------|
G|----------------14--------12-----12\11------------------------------------|
D|---------------------------------------12/14------------------------------|
A|--------------------------------------------------------------------------|
E|--------------------------------------------------------------------------|

From here you can play the acoustic part again or the piano part with natural harmonics or something


==== Legend ====

~ = tremolo
/ = slide
+ = natural harmonic
* = artificial harmonic
^ = slight bend
h = hammer-on
p = pull-off
b = bend
br = bend release

Thanks for reading, please comment and rate!

            
            
Suggest correction
Creating personal tab
Creating personal tab
You can edit any tab online and save it as your Personal.

You can edit, replace or remove any tab part or add personal notes – all changes will be seen only by you.

Personal tabs can be accessed anytime from any device, even offline.
Learn more »
Give kudos to tab author, rate the tab!
1 2 3 4 5
comments
print report bad tab
guest
You may want to rate the tab now too:
select rating
Wanna post a correction for this tab? Suggest correction