Oops, an error
Loading. Please wait.

Stretched tab

version 2
version 2

Whole song

Interactive

142 views 1 this week
no commentswrite comment
1 2 3 4 5
3 more votes to show rating
add to favorites
×
Save as Personal and add changes to this tab that will be seen only by you. Learn more ›
×
You can save this tab as Personal to edit and correct it or add notes. All changes will be seen only by you. Learn more »
launch autoscroll
font size
0
reset
how to read this tab
guitar tuner
edit
Autoscroll
slow
fast
+/-
esc
set tempo
stop
Artist: Infected Mushroom
Song: Stretched
Album: IM Supervisor
Tabbed by: gustavoaraujo999@hotmail.com
Tuning: Drop D


[0:32]
e|----------------------------------------------------------------|
B|----------------------------------------------------------------|
G|----------------------------------------------------------------|
D|-12b13br12---10-10--12-12---------12b13br12---10-10--12---------|
A|--------------------------12----------------------------0-10-12-|
D|----------------------------------------------------------------|

e|----------------------------------------------------------------|
B|----------------------------------------------------------------|
G|--------------------------------------------------------b14-----|
D|-12b13br12---10-10--12-12---------12b13br12---10-10--12---------|
A|--------------------------12------------------------------------|
D|----------------------------------------------------------------|


[0:53]
e|--------------------------------------------------------------------|
B|--------------------------------------------------------------------|
G|--------------------------------------------------------------------|
D|--------------------------------------------------------------------|
A|--------------------------------------------------------------------|
D|-77577-10-7-7-7---77577-10757-57---77577-10-7-7-7---77575-10757-57--|

e|--------------------------------------------------------------------|
B|--------------------------------------------------------------------|
G|--------------------------------------------------------------------|
D|--------------------------------------------------------------------|
A|--------------------------------------------------------------------|
D|-77577-10-7-7-7---77577-10757-57---77577-10-7-7-7---77575-10757-----|


[1:11]
e|-----------------------------------------------|
B|-------13--------13-------13-------13-------13-|
G|----12----12--------12-------12-------12-------|
D|-14----------14--------14-------14-------14----|
A|-----------------------------------------------|
D|-----------------------------------------------|

e|-----------------------------------------------|
B|-------10--------10-------10-------10-------10-|
G|----10----10--------10-------10-------10-------|
D|-12----------12--------12-------12-------12----|
A|-----------------------------------------------|
D|-----------------------------------------------|

e|-----------------------------------------------|
B|-------12--------12-------12-------12-------12-|
G|----12----12--------12-------12-------12-------|
D|-14----------14--------14-------14-------14----|
A|-----------------------------------------------|
D|-----------------------------------------------|

e|-----------------------------------------------|
B|-------13--------13-------13-------13-------13-|
G|----12----12--------12-------12-------12-------|
D|-14----------14--------14-------14-------14----|
A|-----------------------------------------------|
D|-----------------------------------------------|


[1:28]
e|------------------------------------------------------------------|
B|-------13-b17br15---13---------13-12--------12-13------b17br15-13-|
G|----14-----------------14---12-----------12-------14--------------|
D|-14---------------------------------------------------------------|
A|------------------------------------------------------------------|
D|------------------------------------------------------------------|

e|------------------------------------------------------------15----|
B|-------13-b17br15---13---------13-12--------12-13~-----b17-----13-|
G|----14-----------------14---12-----------12-----------------------|
D|-14---------------------------------------------------------------|
A|------------------------------------------------------------------|
D|------------------------------------------------------------------|

e|------------------------------------------------------------------|
B|-------13-b17br15---13---------13-12--------12-13------b17br15-13-|
G|----14-----------------14---12-----------12-------14--------------|
D|-14---------------------------------------------------------------|
A|------------------------------------------------------------------|
D|------------------------------------------------------------------|

e|------------------------------------------------------------------|
B|-------13-b17br15---13---------12----------------------b17br15-13-|
G|----14-----------------14---12-----------12-----------------------|
D|-14-------------------------------12--------14-15-----------------|
A|--------------------------------------------------15--------------|
D|------------------------------------------------------------------|

e|----------------------------------------------------------------------|
B|-----13-15b7br15--13---------12-------------------artificial harmonic-|
G|---14----------------14---12---------12-9-10--------------10*---------|
D|-14-----------------------------12-----------10--b10br9-7-------------|
A|----------------------------------------------------------------------|
D|----------------------------------------------------------------------|

e|-------------------------------------------------------------------------15----|
B|-------13-b17br15---13---------12-13b15-b15-b15-b15br13-12-13-12-----b17----13-|
G|----14-----------------14---12-----------------------------------14------------|
D|-14----------------------------------------------------------------------------|
A|-------------------------------------------------------------------------------|
D|-------------------------------------------------------------------------------|


[2:00]
e|------------------------------------------------------------------|
B|-------13-b17br15---13---------13-12--------12-13------b17br15-13-|
G|----14-----------------14---12-----------12-------14--------------|
D|-14---------------------------------------------------------------|
A|------------------------------------------------------------------|
D|------------------------------------------------------------------|

e|------------------------------------------------------------15----|
B|-------13-b17br15---13---------13-12--------12-13~-----b17-----13-|
G|----14-----------------14---12-----------12-----------------------|
D|-14---------------------------------------------------------------|
A|------------------------------------------------------------------|
D|------------------------------------------------------------------|

e|------------------------------------------------------------------|
B|-------13-b17br15---13---------13-12--------12-13------b17br15-13-|
G|----14-----------------14---12-----------12-------14--------------|
D|-14---------------------------------------------------------------|
A|------------------------------------------------------------------|
D|------------------------------------------------------------------|

e|------------------------------------------------------------------|
B|-------13-b17br15---13---------12----------------------b17br15-13-|
G|----14-----------------14---12-----------12-----------------------|
D|-14-------------------------------12--------14-15-----------------|
A|--------------------------------------------------15--------------|
D|------------------------------------------------------------------|

e|----------------------------------------------------------------------|
B|-----13-15b7br15--13---------12---------------------------------------|
G|---14----------------14---12---------12-9-10--------------------------|
D|-14-----------------------------12-----------10--b10br9-7---7---------|
A|------------------------------------------------------------7---------|
D|------------------------------------------------------------7---------|

e|------------------------------------------------------------------|
B|-------13-b17br15---13--------------------------------------------|
G|----14-----------------14---12-14-12~-b--b14\\\-------------------|
D|-14---------------------------------------------------------------|
A|------------------------------------------------------------------|
D|------------------------------------------------------------------|

[2:32]
e|----------------------------------|----------------------------------|
B|----------------------------------|----------------------------------|
G|----------------------------------|----------------------------------|
D|-----------------------------7----|----------------------------------|
A|----------------------------------|----------------------------------|
D|-7778-77-77-77-7--7778-77-77--8\--|-7778-77-77-77-7--7778-------8\---|

e|----------------------------------|----------------------------------|
B|----------------------------------|----------------------------------|
G|----------------------------------|----------------------------------|
D|-----------------------------7----|----------------------------------|
A|----------------------------------|----------------------------------|
D|-7778-77-77-77-7--7778-77-77--8\--|-7778-77-77-77-7--7778-------8\---|


[2:48] - tremolo picked
e|---------------------------------------------------------------|
B|-17/18----17-15-17-15-14----10/14-11-10------------------------|
G|---------------------------------------------------------------|
D|---------------------------------------------------------------|
A|---------------------------------------------------------------|
D|---------------------------------------------------------------|

e|--------------------------------------------------------------------|
B|-///14-----14---15----14-15-17-15-14-15-14----14--------------------|
G|-------------------------------------------15----14------b15---br14-|
D|--------------------------------------------------------------------|
A|--------------------------------------------------------------------|
D|--------------------------------------------------------------------|

e|--------------------------------------------------------------------|-20-|
B|-xxx14----14----15----14-15-17-15-14-15-14----14--22----------------|----|
G|-------------------------------------------15------------b15---br14-|----|
D|--------------------------------------------------------------------|----|
A|--------------------------------------------------------------------|----|
D|--------------------------------------------------------------------|----|


[3:36]
e|----------------------------------|----------------------------------|
B|----------------------------------|----------------------------------|
G|----------------------------------|----------------------------------|
D|-----------------------------7----|----------------------------------|
A|----------------------------------|----------------------------------|
D|-7778-77-77-77-7--7778-77-77--8\--|-7778-77-77-77-7--7778-------8\---|

e|----------------------------------|----------------------------------|
B|----------------------------------|----------------------------------|
G|----------------------------------|----------------------------------|
D|-----------------------------7----|----------------------------------|
A|----------------------------------|----------------------------------|
D|-7778-77-77-77-7--7778-77-77--8\--|-7778-77-77-77-7--7778-------8\---|


[3:50]
e|----17-15------------------------------------------------------|
B|---17------17-------15-17----14---------15-14-15-17------------|
G|--18----------------------14---------15-------------14---------|
D|---------------------------------------------------------------|
A|---------------------------------------------------------------|
D|---------------------------------------------------------------|

e|---------------------------------------------------------------|
B|---------------------------------------------------------------|
G|----12----12------------------------------------------15-14----|
D|-12----12-----11----12-11-------------------11--12--14------14-|
A|-----------------12----------13-10-12---13---------------------|
D|---------------------------------------------------------------|

e|-----------------------17-18-21----18-15-18-15-18-15-18-15-----|
B|---------------------------------------------------------------|
G|-15-14---12-14-------------------------------------------------|
D|------------------11-------------------------------------------|
A|---------------------------------------------------------------|
D|---------------------------------------------------------------|
 

[4:23]
e|----------------------------|----------------------------|
B|---8------------------------|---8--------------------/10-|
G|--------10---9---7---6h7--6-|-------10---9---7--6h7------|
D|-7----7----7---7------------|-7---7----7---7-------------|
A|----------------------------|----------------------------|
D|----------------------------|----------------------------|

e|----------------------------|----------------------------|
B|---8------------------------|---8------------------------|
G|--------10---9---7---6h7--6-|-------10---7---------6h7-7-|
D|-7----7----7---7------------|-7---7----7---7-8~----------|
A|----------------------------|----------------------------|
D|----------------------------|----------------------------|

e|----------------------------|------------------------------|
B|---8------------------------|---8------------------*/10-\8-|
G|--------10---9---7---6h7--6-|-------10---9---7--6h7--------|
D|-7----7----7---7------------|-7---7----7---7---------------|
A|----------------------------|------------------------------|
D|----------------------------|------------------------------|

e|----------------------------|---------------------------------|
B|----------------------------|---8-----------------------------|
G|-/10---9---7---------6h7--6-|-------10---9-----7p6----7p6--p6-|
D|----------------------------|-7---7----7---7------h7-----h7---|
A|----------------------------|---------------------------------|
D|----------------------------|---------------------------------|
 

[4:39]
e|----15------------------------------|----15---------------------------17\-|
B|----------18----17----15---14h15-14-|----------18----17----15---14h15-----|
G|-14----14----14----14---------------|-14----14----14----14----------------|
D|------------------------------------|-------------------------------------|
A|------------------------------------|-------------------------------------|
D|------------------------------------|-------------------------------------|

e|----15------------------------------|----15---------------------------17\-|
B|----------18----17----15---14h15-14-|----------18----15---------14h15-----|
G|-14----14----14----14---------------|-14----14----14----14-15-------------|
D|------------------------------------|-------------------------------------|
A|------------------------------------|-------------------------------------|
D|------------------------------------|-------------------------------------|
                                           |- some kind of acciaccatura on this note, idk

e|----15------------------------------|----15--------------------------*/17--15-|
B|----------18----17----15---14h15-14-|----------18----17----15---14h15---------|
G|-14----14----14----14---------------|-14----14----14----14--------------------|
D|------------------------------------|--------------------------------art.harm.|
A|------------------------------------|-----------------------------------------|
D|------------------------------------|-----------------------------------------|
                         |- dive this one

e|------------------------------------|----15-------------------------------|
B|--18----17----15-----------14h15-14-|----------18----15---15p14---15-////-|
G|------------------------------------|-14----14----14-----------14---------|
D|------------------------------------|-------------------------------------|
A|------------------------------------|-------------------------------------|
D|------------------------------------|-------------------------------------|
 

[4:56]
e|-------------------------------------|-------------------------------|
B|-------------------------------------|-------------------------------|
G|-------------------------------------|-------------------------------|
D|---------------------------7---------|-------------------------------|
A|-------------------------------------|-------------------------------|
D|-7-7-7-77-7--78-------7-7-7--7-7-78--|-7-7-77-7-78-------77-77-77-77-|

[5:04]
e|---------------------------------------------------------------|
B|---------------------------------------------------------------|
G|-------17---------17---------16---------16---------16----------|
D|-15-14------15-14------15-14------15-14------15-14-------------|
A|---------------------------------------------------------------|
D|---------------------------------------------------------------|

e|---------------------------------------------------------------|
B|---------------------------------------------------------------|
G|-------17---------17---------16---------16---------16----------|
D|-15-14------15-14------15-14------15-14------15-14-------------|
A|---------------------------------------------------------------|
D|---------------------------------------------------------------|

e|---------------------------------------------------------------|
B|---------------------------------------------------------------|
G|-16-17------16-17-------16----16----17----16----17----16-------|
D|-------19---------19-------17----------17----------18----------|
A|---------------------------------------------------------------|
D|---------------------------------------------------------------|
    
e|---------------------------------------------------------------|
B|---------------------------------------------------------------|
G|-16-17------16-17-------16----16----17----16----17----16-------|
D|-------19---------19-------17----------17----------18----------|
A|---------------------------------------------------------------|
D|---------------------------------------------------------------|
 

[5:51]
e|----------------------------------------------------------------|
B|----------------------------------------------------------------|
G|----------------------------------------------------------------|
D|-12b13br12---10-10--12-12---------12b13br12---10-10--12---------|
A|--------------------------12----------------------------0-10-12-|
D|----------------------------------------------------------------|

e|----------------------------------------------------------------|
B|----------------------------------------------------------------|
G|--------------------------------------------------------b14-----|
D|-12b13br12---10-10--12-12---------12b13br12---10-10--12---------|
A|--------------------------12------------------------------------|
D|----------------------------------------------------------------|


[6:40]
e|---------------------------|
B|---------------------------|
G|---------------------------|
D|---------------------------|
A|-5-6-----------------------|
D|-------7----x-7-10-x-x-7\--|

            
            
Suggest correction
Creating personal tab
Creating personal tab
You can edit any tab online and save it as your Personal.

You can edit, replace or remove any tab part or add personal notes – all changes will be seen only by you.

Personal tabs can be accessed anytime from any device, even offline.
Learn more »
Give kudos to tab author, rate the tab!
1 2 3 4 5
comments
print report bad tab
guest
You may want to rate the tab now too:
select rating
Wanna post a correction for this tab? Suggest correction