Oops, an error
Loading. Please wait.

Feeling Mean tab

by Infest
1,669 views 3 this week
1 commentread comment
1 2 3 4 5
2 more votes to show rating
add to favorites
×
Save as Personal and add changes to this tab that will be seen only by you. Learn more ›
×
You can save this tab as Personal to edit and correct it or add notes. All changes will be seen only by you. Learn more »
launch autoscroll
font size
0
reset
how to read this tab
guitar tuner
edit
Autoscroll
slow
fast
+/-
esc
set tempo
stop
Author
Difficulty
UG:"If the band "infest" really exists and is not an unsigned band, please provide us 
a link to the official website of this band in your tab below and click on Submit Your Tab 
again."

http://www.myspace.com/infestband
this is as official as it gets.

*Tab denied?*


Here's some Powerviolence for all you kiddies.
If you've never heard of Powerviolence, let alone Infest.
Don't even bother reading the tab, or looking them up.


Intro Riff/Verse
e|---------------------------------------------------------|
B|---------------------------------------------------------|
G|-----------13---10--------13---10-10-10------------------|
D|-13---10---13---10---13---13---10-10-10------------------|
A|-13---10---11----8---13---11----8--8--8------------------|
E|-11----8-------------11----------------------------------|


Chorus
e|---------------------------------------------------------|
B|---------------------------------------------------------|
G|----------------------10------13-13-13-------------------|
D|--12-12-12-12--10-10--10--10--13-13-13-------------------|
A|--12-12-12-12--10-10---8--10--11-11-11-------------------|
E|--10-10-10-10---8--8-------8-----------------------------|

If you can't figure out the last riff than you might as well quit music altogether.

Here I am feeling mean.
Can't escape this fucking dream.
Somehow I lose control.
Somehow i've lost my soul.

Sometimes I just don't give a fuck.





If you had a mind and thought for yourself and went ahead and looked up this amazing 
then congratulations. Your one step away from the normalcy society dictates for your infirm souls.

            
            
Suggest correction
Creating personal tab
Creating personal tab
You can edit any tab online and save it as your Personal.

You can edit, replace or remove any tab part or add personal notes – all changes will be seen only by you.

Personal tabs can be accessed anytime from any device, even offline.
Learn more »
Give kudos to tab author, rate the tab!
1 2 3 4 5
comments
print report bad tab
1 comment total.
0 reply
White Pony 10 May 13, 2011 01:32 PM

Nice job man, first Infest tab so far on UG. Still waiting for Nazi Killer though.

guest
You may want to rate the tab now too:
select rating
Wanna post a correction for this tab? Suggest correction