Oops, an error
Loading. Please wait.

Bleed For You tab

version 1
version 1

Whole song

Interactive

397 views 6 this week
no commentswrite comment
1 2 3 4 5
2 more votes to show rating
add to favorites
×
Save as Personal and add changes to this tab that will be seen only by you. Learn more ›
×
You can save this tab as Personal to edit and correct it or add notes. All changes will be seen only by you. Learn more »
launch autoscroll
font size
0
reset
how to read this tab
guitar tuner
edit
Autoscroll
slow
fast
+/-
esc
set tempo
stop
Inglorious - Bleed For You
Album: Inglorious
Tabbed by: moist_seagull



Chords used:

C#m:  x46654
G#:   466544
A:    x02220
E:    022100
B:    x24442


[Intro]

e|----4----------------4-----------------0----------------0--------2----|
B|----5------5p4-------4-----------------2------2p0-------0--------4----|
G|----6-----------6p4--5------4-----4h6--2-----------2p0--1--------4----|
D|----6----------------6---------6-------2----------------2--------4----| x2
A|----4----------------6-----------------0----------------2--------2----|
E|---------------------4----------------------------------0-------------|



[Main Riff]

e|--------------------------------------------------------------------------------|
B|--------------------------------------------------------------------------------|
G|----/6--------8b9r8--6--5~-------5--3--5--(5)b6--------4--6p4p3-----------/5~---|
D|------------------------------------------------------------------6~------------| x2
A|--------------------------------------------------------------------------------|
E|--------------------------------------------------------------------------------|




[Verse]


C#m            G#             A             E    B
    Beaten and wounded, there is no great escape.

C#m                 G#         A           E     B
    My luck finally over, I'm dying of the shame.


e|-----------------------------------------------------|
B|--------------------------------------5---------5----|
G|--------------------------------------3---------3----|
D|----6--4-------------------------x---------x---------|
A|----4--2----6----5----4----------x---------x---------|
E|------------4----3----2----------x---------x---------|
                                   Don't ask me.

e|-----------------------------------------------------|
B|--------------------------------------5---------5----|
G|--------------------------------------3---------3----|
D|----6--4-------------------------x---------x---------|
A|----4--2----6----5----4----------x---------x---------|
E|------------4----3----2----------x---------x---------|
                                   All hope is gone.

e|------------------------------------------------------------------------|
B|------------------------------------------------------------------------|
G|------------------------------------------------------------------------|
D|----6--4----------------------------------------------------------------|
A|----4--2----6----5----4--4--4--4--4--4--4--4--4--4--4--4--4--4--4--4----|
E|------------4----3----2--2--2--2--2--2--2--2--2--2--2--2--2--2--2--2----|
                        Never meant to break you can you please just give me



[Chorus]

e|---------------------------------------------------------------------------|
B|---------------------------------------------------------------------------|
G|------------------------------------------6----6--------6-2----2--2----2---|
D|----2----2--------/6----6--6----6----x-x--6----6--------6-2----2--2----2---|
A|----2----2--------/6----6--6----6----x-x--4----4--------4-0----0--0----0---|
E|----0----0--------/4----4--4----4----x-x-----------------------------------|
      tonight,                         and I'll find you.                Holding a

e|-------------------------------------------------------------|
B|-------------------------------------------------------------|
G|------------------------------------------6------4------2----|
D|----2----2--------/6----6--6----6----x-x--6------4------2----|
A|----2----2--------/6----6--6----6----x-x--4------2------0----|
E|----0----0--------/4----4--4----4----x-x---------------------|
      knife                       we'll sacrifice.           Give me

e|---------------------------------------------------------------------------|
B|----------------------------------------------------------4--5--4--5--4----|
G|------------------------------------------6-------6-------4--4--4--4--4----|
D|----2----2--------/6----6--6----6----x-x--6-------6-------4--4--4--4--4----|
A|----2----2--------/6----6--6----6----x-x--4---x---4---x--------------------|
E|----0----0--------/4----4--4----4----x-x------x-------x--------------------|
      tonight,                         time is over.                     My

e|------------------------------------------------------------------------------------|
B|------------------------------------------------------------------------------------|
G|------------------------------------------------------------------------------------|
D|----2----2----2----2----2----2----2----2----7----7----7----7----2----2----2----2----|
A|----0----0----0----0----0----0----0----0----5----5----5----5----0----0----0----0----|
E|------------------------------------------------------------------------------------|
      hands are tied.                    I'll bleed for you tonight.





[Main Riff 2]

e|--------------------------------------------------------------------------------|
B|--------------------------------------------------------------------------------|
G|----/6--------8b9r8--6--5~-------5--3--5--(5)b6--------4--6p4p3-----------/5~---|
D|------------------------------------------------------------------6~------------| 
A|--------------------------------------------------------------------------------|
E|--------------------------------------------------------------------------------|




[Verse 2]



C#m             G#           A               E     B
    Shadows are lonely, they keep me here in chains.

C#m                   G#         A                  E     B
    Can't look in the mirror, reflects my guilt and pain.


e|-----------------------------------------------------|
B|--------------------------------------5---------5----|
G|--------------------------------------3---------3----|
D|----6--4-------------------------x---------x---------|
A|----4--2----6----5----4----------x---------x---------|
E|------------4----3----2----------x---------x---------|
                                        Actions.

e|-----------------------------------------------------|
B|--------------------------------------5---------5----|
G|--------------------------------------3---------3----|
D|----6--4-------------------------x---------x---------|
A|----4--2----6----5----4----------x---------x---------|
E|------------4----3----2----------x---------x---------|
                        Louder than words.

e|------------------------------------------------------------------------|
B|------------------------------------------------------------------------|
G|------------------------------------------------------------------------|
D|----6--4----------------------------------------------------------------|
A|----4--2----6----5----4--4--4--4--4--4--4--4--4--4--4--4--4--4--4--4----|
E|------------4----3----2--2--2--2--2--2--2--2--2--2--2--2--2--2--2--2----|
                        Finish what I started, can you please just give me







[Chorus 2]

e|---------------------------------------------------------------------------|
B|---------------------------------------------------------------------------|
G|------------------------------------------6----6--------6-2----2--2----2---|
D|----2----2--------/6----6--6----6----x-x--6----6--------6-2----2--2----2---|
A|----2----2--------/6----6--6----6----x-x--4----4--------4-0----0--0----0---|
E|----0----0--------/4----4--4----4----x-x-----------------------------------|
      tonight,                         and I'll find you.                Holding a

e|-------------------------------------------------------------|
B|-------------------------------------------------------------|
G|------------------------------------------6------4------2----|
D|----2----2--------/6----6--6----6----x-x--6------4------2----|
A|----2----2--------/6----6--6----6----x-x--4------2------0----|
E|----0----0--------/4----4--4----4----x-x---------------------|
      knife                       we'll sacrifice.           Give me

e|---------------------------------------------------------------------------|
B|----------------------------------------------------------4--5--4--5--4----|
G|------------------------------------------6-------6-------4--4--4--4--4----|
D|----2----2--------/6----6--6----6----x-x--6-------6-------4--4--4--4--4----|
A|----2----2--------/6----6--6----6----x-x--4---x---4---x--------------------|
E|----0----0--------/4----4--4----4----x-x------x-------x--------------------|
      tonight,                         time is over.                     My

e|------------------------------------------------------------------------------------|
B|------------------------------------------------------------------------------------|
G|------------------------------------------------------------------------------------|
D|----2----2----2----2----2----2----2----2----7----7----7----7----2----2----2----2----|
A|----0----0----0----0----0----0----0----0----5----5----5----5----0----0----0----0----|
E|------------------------------------------------------------------------------------|
      hands are tied.                    I'll bleed for you tonight.





[Solo]

With wah.

e|---------------------------------------------------------------------------------------------|
B|-----------------------------------------------------------------------------12----12--------|
G|----/6----8b9r8p6--8b9--------9b11r9p6---9b11--------11b13r11p9--11b13----13----13-----------|
D|---------------------------------------9-----------------------------------------------11----|
A|---------------------------------------------------------------------------------------------|
E|---------------------------------------------------------------------------------------------|

e|-------------------------------------------------------------------|
B|----12b14----12-----------12---------------------------------12----|
G|-------------------11h13-----11pb13r11p9--11pb13r11p9--11/13-------|
D|-------------------------------------------------------------------|
A|-------------------------------------------------------------------|
E|-------------------------------------------------------------------|

e|----------9h12p9----9------------------------------------------------|
B|----10h12--------12---12p10p9----9h10p9----9---------9h10p9-12b14----|
G|------------------------------11--------11---11p9h11-----------------|
D|---------------------------------------------------------------------|
A|---------------------------------------------------------------------|
E|---------------------------------------------------------------------|

e|------------------------------------------------------------------19----------------------|
B|----16b17r16p14-16b17------17b19r17p14-17b19----19b21r19p17-19b21----19pb21r19-17--14~----|
G|------------------------------------------------------------------------------------------|
D|------------------------------------------------------------------------------------------|
A|------------------------------------------------------------------------------------------|
E|------------------------------------------------------------------------------------------|

e|-------------------------------------------------------------------------------------------------------|
B|-------------------------------------------------------------------------------------------------------|
G|----16---13-----------------------------------------------------16--16--------14-16b18------13---------|
D|--------------16pb17r16---14---16----------14--16b17r16p14--16----------------------------------16\----|
A|-------------------------------------------------------------------------------------------------------|
E|-------------------------------------------------------------------------------------------------------|






[Bridge]

e|--------------------------------------------------------------|
B|--------------------------------------------------------------|
G|--------------------------------------------------------------|
D|--------------------------------------------------------------|
A|----4--2-------------------------------4--2-------------------|
E|------------4----3----2------------------------4----3----2----|
                          Don't ask me.                      All hope is lost.

e|------------------------------------------------------------------------|
B|------------------------------------------------------------------------|
G|------------------------------------------------------------------------|
D|----6--4----------------------------------------------------------------|
A|----4--2----6----5----4--4--4--4--4--4--4--4--4--4--4--4--4--4--4--4----|
E|------------4----3----2--2--2--2--2--2--2--2--2--2--2--2--2--2--2--2----|
                        Never meant to break you can you please just give me




[Chorus 3]

e|---------------------------------------------------------------------------|
B|---------------------------------------------------------------------------|
G|------------------------------------------6----6--------6-2----2--2----2---|
D|----2----2--------/6----6--6----6----x-x--6----6--------6-2----2--2----2---|
A|----2----2--------/6----6--6----6----x-x--4----4--------4-0----0--0----0---|
E|----0----0--------/4----4--4----4----x-x-----------------------------------|
      tonight,                         and I'll find you.                Holding a

e|-------------------------------------------------------------|
B|-------------------------------------------------------------|
G|------------------------------------------6------4------2----|
D|----2----2--------/6----6--6----6----x-x--6------4------2----|
A|----2----2--------/6----6--6----6----x-x--4------2------0----|
E|----0----0--------/4----4--4----4----x-x---------------------|
      knife                       we'll sacrifice.           Give me

e|---------------------------------------------------------------------------|
B|----------------------------------------------------------4--5--4--5--4----|
G|------------------------------------------6-------6-------4--4--4--4--4----|
D|----2----2--------/6----6--6----6----x-x--6-------6-------4--4--4--4--4----|
A|----2----2--------/6----6--6----6----x-x--4---x---4---x--------------------|
E|----0----0--------/4----4--4----4----x-x------x-------x--------------------|
      tonight,                         time is over.                     My

e|--------------------------------------------|
B|--------------------------------------------|
G|--------------------------------------------|
D|----2----2----2----2----2----2----2----2----|
A|----0----0----0----0----0----0----0----0----|
E|--------------------------------------------|
      hands are tied.                      To-

e|---------------------------------------------------------------------------|
B|---------------------------------------------------------------------------|
G|------------------------------------------6----6--------6-2----2--2----2---|
D|----2----2--------/6----6--6----6----x-x--6----6--------6-2----2--2----2---|
A|----2----2--------/6----6--6----6----x-x--4----4--------4-0----0--0----0---|
E|----0----0--------/4----4--4----4----x-x-----------------------------------|
      -night,                                                            Give me to-

e|-------------------------------------------------------------|
B|-------------------------------------------------------------|
G|------------------------------------------6------4------2----|
D|----2----2--------/6----6--6----6----x-x--6------4------2----|
A|----2----2--------/6----6--6----6----x-x--4------2------0----|
E|----0----0--------/4----4--4----4----x-x---------------------|
      night                       we'll sacrifice.            Oh, give me

e|---------------------------------------------------------------------------|
B|----------------------------------------------------------4--5--4--5--4----|
G|------------------------------------------6-------6-------4--4--4--4--4----|
D|----2----2--------/6----6--6----6----x-x--6-------6-------4--4--4--4--4----|
A|----2----2--------/6----6--6----6----x-x--4---x---4---x--------------------|
E|----0----0--------/4----4--4----4----x-x------x-------x--------------------|
      tonight,                         time is over.                     My

e|------------------------------------------------------------------------------------|
B|------------------------------------------------------------------------------------|
G|------------------------------------------------------------------------------------|
D|----2----2----2----2----2----2----2----2----7----7----7----7----2----2----2----2----|
A|----0----0----0----0----0----0----0----0----5----5----5----5----0----0----0----0----|
E|------------------------------------------------------------------------------------|
      hands are tied.                    I'll bleed for you tonight.







[Main Riff 3]


e|--------------------------------------------------------------------------------|
B|--------------------------------------------------------------------------------|
G|----/6--------8b9r8--6--5~-------5--3--5--(5)b6--------4--6p4p3-----------/5~---|
D|------------------------------------------------------------------6~------------| 
A|--------------------------------------------------------------------------------|
E|--------------------------------------------------------------------------------|



[Outro]

e|----4----------------4-----------------0-----------------------------------------|
B|----5------5p4-------4-----------------2------2p0--------------------------------|
G|----6-----------6p4--5------4-----4h6--2-----------2p0--------1-------1--4--5----|
D|----6----------------6---------6-------2-------------------2-----2/4-------------| 
A|----4----------------6-----------------0-----------------------------------------|
E|---------------------4----------------------------------0------------------------|

e|----4-------|
B|-----5------|
G|------6-----|
D|-------6----|
A|--------4---|
E|------------|





************************************

| x   Dead note
| (n) Ghost note
| h   Hammer-on
| p   Pull-off
| r   Release
| b   Bend
| pb  Pre-bend
| /   Slide up
| \   Slide down
| ~   Vibrato
************************************

            
            
Suggest correction
Creating personal tab
Creating personal tab
You can edit any tab online and save it as your Personal.

You can edit, replace or remove any tab part or add personal notes – all changes will be seen only by you.

Personal tabs can be accessed anytime from any device, even offline.
Learn more »
Give kudos to tab author, rate the tab!
1 2 3 4 5
comments
print report bad tab
guest
You may want to rate the tab now too:
select rating
Wanna post a correction for this tab? Suggest correction