Oops, an error
Loading. Please wait.

The Way I Am tab

version 6
version 6

Whole song

Interactive

7,695 views 3 this week
1 commentread comment
1 2 3 4 5
x 3
add to favorites
×
Save as Personal and add changes to this tab that will be seen only by you. Learn more ›
×
You can save this tab as Personal to edit and correct it or add notes. All changes will be seen only by you. Learn more »
launch autoscroll
font size
0
reset
how to read this tab
guitar tuner
edit
Autoscroll
slow
fast
+/-
esc
set tempo
stop
Author
Difficulty
-------------------------------------------------------------------------------
                             THE WAY I AM - Ingrid Michaelson
-------------------------------------------------------------------------------
Tabbed by: Dom Carter
Email: domcarter@live.com

Notes: 
      -Good song, easy to learn, the "0's" are to help the transition of the notes 
played and makes it sound better.
      -After the second chorus play again from the second verse until the end of the song. 


Tuning: STANDARD

VERSE ONE - 0:00
e|--------------------------------------------------------------------------|
B|--------------------------------------------------------------------------|
G|--------------------------------------------------------------------------|
D|----------------0---0-----------------------------------------------------|
A|-------0--1---1-----------3---3-------------------------------------------|
E|-1---1--------------------------------------------------------------------|


CHORUS - 0:31
e|--------------------------------------------------------------------------|
B|--------------------------------------------------------------------------|
G|--------------------------------------------------------------------------|
D|------------------------0--0----------------------------------------------|
A|0-1--1--3--3------------------0--1--1--(3)---2-1--------------------------|
E|-----------------0-1--1-----------------------------1-1--1-1--------------|


VERSE TWO - 0:48
e|--------------------------------------------------------------------------|
B|--------------------------------------------------------------------------|
G|-----33---77---55---------------------------------------------------------|
D|33---33---77---55---------------------------------------------------------|
A|33---11---55---33---------------------------------------------------------|
E|11------------------------------------------------------------------------|


CHORUS TWO - 1:04
e|------------------------------x------------------------------5--3---------|
B|------------------------------x--------------------------0-3--------------|
G|33----55----------33----77----5--------7-5-5--------5--3------------------|
D|33----55----33----33----77----5--------7-5-5------------------------------|
A|11----33----33----11----55----3--------5-3-7------------------------------|
E|------------11----------------x-------------------------------------------|


| /  slide up
| \  slide down
| h  hammer-on
| p  pull-off
| ~  vibrate
| +  harmonic
| x  Mute note
===============================================================================

            
            
Suggest correction
Creating personal tab
Creating personal tab
You can edit any tab online and save it as your Personal.

You can edit, replace or remove any tab part or add personal notes – all changes will be seen only by you.

Personal tabs can be accessed anytime from any device, even offline.
Learn more »
Give kudos to tab author, rate the tab!
1 2 3 4 5
comments
print report bad tab
1 comment total.
0 reply
snoopdom 31 Aug 11, 2009 06:38 AM

Nice looking tab there ;)

guest
You may want to rate the tab now too:
select rating
Wanna post a correction for this tab? Suggest correction