Oops, an error
Loading. Please wait.

Its Myself Vs Being A Man tab

version 1
version 1

Whole song

3,718 views 1 this week
1 commentread comment
1 2 3 4 5
1 last vote to show rating
add to favorites
×
Save as Personal and add changes to this tab that will be seen only by you. Learn more ›
×
You can save this tab as Personal to edit and correct it or add notes. All changes will be seen only by you. Learn more »
launch autoscroll
font size
0
reset
how to read this tab
guitar tuner
edit
Autoscroll
slow
fast
+/-
esc
set tempo
stop
It's Myself vs. Being a Man
Inhale Exhale
I Swear...
2008 Solid State Records

This tab probably isn't exactly right so comment with any corrections or email me
at mikebmcgee@comcast.net

Intro
D|----------------15| These are fifteen, twelve and thirteen, not one, two,
A|1212121212121312--| three, and five.
F|------------------|
C|------------------|
G|------------------|
C|------------------|

Intro (Part 2)
D|---------8|
A|888888108-|
F|----------|
C|----------|
G|----------|
C|----------|

Pre-verse
D|---------------------------------|
A|---------------------------------|
F|10~~10-10~~10----101010101010----|
C|10~~10-10~~100~~~1010101010100~~~|
G|8~~~8--8~~~8-0~~~8-8-8-8-8-8-0~~~|
C|-------------0~~~------------0~~~|

Verse (Part 1)
D|---------|
A|---------|
F|------888| You may want to bend that 8/6 chord.
C|------666|
G|00-0-0---|
C|00-0-0---|
  .. . .

Verse (Part 2)
D|-----------|
A|-----------|
F|-----------|
C|-----------|
G|-----------|
C|03-4-04-5-6|

Pre-chorus
D|------|      D|------|
A|------|      A|------|
F|------|      F|------|
C|------|      C|------|
G|-36563|      G|-25452|
C|0-----| x4   C|0-----|

[Chorus]
(Part 1)
D|---------------------------|
A|---------------------------|
F|---------------------------|
C|1~~1~111~~1~111~~1~111~~1~1|
G|1~~1~111~~1~111~~1~111~~1~1|
C|1~~1~111~~1~111~~1~111~~1~1|

(Part 2)
D|------------|
A|------------|
F|------------|
C|555555555555|
G|555555555555|
C|555555555555|

Play Part 1 again

(Part 3)
D|--------------------|
A|--------------------|
F|--------------------|
C|5~~5~555~~5~55444444|
G|5~~5~555~~5~55444444|
C|5~~5~555~~5~55444444|
[End of Chorus]

Breakdown
D|----------------------|
A|----------------------|
F|----------------------|
C|----------------------|
G|-------5-3--------0000|
C|0-2-3-0-0-00-2-3-00000|
                    ....

Outro
D|----------------------------|
A|----------------------------|
F|10~~10~10~~10~--------------|
C|10~~10~10~~10~0~~~~~~~~~~~~~|
G|8~~~8~~8~~~8~~0~~~~~~~~~~~~~|
C|--------------0~~~~~~~~~~~~~|Let ring.

Key:
~ = hold note out
. = palm mute

Song Structure
________________

Intro x 8
Intro (pt.2) x 4
Intro x 4
Intro (pt.2) x 4
Pre-verse x 1
Verse (pt.1) x 3
Verse (pt.2) x 1
Verse (pt.1) x 3
Verse (pt.2) x 1
Pre-Chorus x 2
Chorus x 1
Intro x 4
Intro (pt.2) x 4
Intro x 4
Intro (pt.2) x 4
Pre-verse x 1
Verse (pt.1) x 3
Verse (pt.2) x 1
Verse (pt.1) x 3
Verse (pt.2) x 1
Pre-chorus x 2
Chorus x 1
Intro x 4
Intro (pt.2) x 4
Intro x 4
Intro (pt.2) x 4
Pre-verse x 1
Breakdown x 8
Pre-chorus x 2
Chorus x 1
Intro x 4
Intro (pt.2) x 4
Intro x 4
Intro (pt.2) x 4
Outro x 1 and let ring.

Thank you for viewing this tab. This tab works best when played along with the song.

            
            
Suggest correction
Creating personal tab
Creating personal tab
You can edit any tab online and save it as your Personal.

You can edit, replace or remove any tab part or add personal notes – all changes will be seen only by you.

Personal tabs can be accessed anytime from any device, even offline.
Learn more »
Give kudos to tab author, rate the tab!
1 2 3 4 5
comments
print report bad tab
1 comment total.
+2 reply
martyrdood 86 Nov 03, 2008 06:28 PM

Intro
D|------------------------15---|
A|12-0-0-12-0-0-13-0-12-0------|
F|--------------------------12-| repeat 8 times
C|-----------------------------|
G|-----------------------------|
C|-----------------------------|


Intro pt.2
D|-----------------------------|
A|------------------------15---|
F|12-0-0-12-0-0-13-0-12-0------| repeat 4 times
C|--------------------------12-|
G|-----------------------------|
C|-----------------------------|

Intro
D|------------------------15---|
A|12-0-0-12-0-0-13-0-12-0------|
F|--------------------------12-| repeat 4 times
C|-----------------------------|
G|-----------------------------|
C|-----------------------------|

That's the only thing i can find wrong, but yeah i'm pretty sure that's how you play the intro =] oh and in the verse part 2 he kinda give each string a sorta bend when he strikes them

guest
You may want to rate the tab now too:
select rating
Wanna post a correction for this tab? Suggest correction