Oops, an error
Loading. Please wait.

Faster The Chase tab

version 2
version 2

Whole song

Interactive

by InMe
3,881 views 3 this week
4 commentsread comments
1 2 3 4 5
x 10
add to favorites
×
Save as Personal and add changes to this tab that will be seen only by you. Learn more ›
×
You can save this tab as Personal to edit and correct it or add notes. All changes will be seen only by you. Learn more »
launch autoscroll
font size
0
reset
how to read this tab
guitar tuner
edit
Autoscroll
slow
fast
+/-
esc
set tempo
stop
-----------------------------------------------------------------
Faster The Chase - Inme
-----------------------------------------------------------------
Tabbed by: tom451
Email: t_van_kleek@hotmail.com

| / slide up
| \ slide down
| h hammer-on
| p pull-off
| ~ vibrato
| + harmonic
| x Scratch
| b bend note
| P.M palm-mute (-----| the dashes carry on until it stops at this point |)
| r in this case it means re-strike note while bent and release
| L.R. let ring

I've gone through this to make sure its all how its sposed to be so enjoy!

Tuning: Drop D

 Intro

  Gtr.1 (dist)
e|-------------------------|-------------------------------------|
B|-------------------------|-------------------------------------|
G|-------------------------|-------------------------------------|
D|-------------------------|-55-5-55-5-5-5--44-4-44-4-4-4--------|
A|----4b(6)r-0-4—4b(6)r---4|-55-5-55-5-5-5--55-5-55-5-5-5--------|
D|-xx-------------------5--|-55-5-55-5-5-5--55-5-55-5-5-5--------|

  Verse 1
                                           P.M.--------------------|
e|-----------------------------------------------------------------|
B|-----------------------------------------------------------------|
G|-----------------------------------------------------------------|
D|-555-x-555-x-555-x-555-x-999-x-999-x-777--0----------------------|
A|-555-x-555-x-555-x-555-x-999-x-999-x-999—---2-0------------------|
D|-555-x-555-x-555-x-555-x-999-x-999-x-999--------4-0--------------|
                                       ^
This fill below comes in on this note--|

  Gtr.2 (dist.)
e|---------------------------------------------------------------|
B|---------------------------------------------------------------|
G|-------7-9b(11)-7----------------------------------------------|
D|---7-9----------|--9-7-----------------------------------------|
A|-9--------------|------9-7-------------------------------------|
D|----------------|----------------------------------------------|
                  |
           On this note Gtr.1 plays the P.M. notes above

  Gtr.1 (dist.)                       P.M---|
e|---------------------------------------------------------------|
B|---------------------------------------------------------------|
G|---------------------------------------------------------------|
D|-555-x-555-x-555-x-555-\-222-444-555-555555---7--7--7----------|
A|-555-x-555-x-555-x-555-\-222-444-555-555555---7--7--7----------|
D|-555-x-555-x-555-x-555-\-222-444-555-555555---7--7--7----------|

  Pre-Chorus

  Gtr.1 (dist.)         P.M-|
e|---------------------------------------------------------------|
B|-------10------------------------------------------------10----|
G|----------11---------------------------------6b(8)----------11-|
D|-9-9-9--------999999999999--999--555555555555-------9-9-9------|
A|-9-9-9--------999999999999--999--555555555555-------9-9-9------|
D|-9-9-9--------999999999999--999--555555555555-------9-9-9------|

  1st bend when Dave says "for" he emphasizes it and the guitar backs it.
                         P.M-|
e|---------------------------------------------------------------|
B|--------------[7b(9)--------7b(9)-played-by-Gtr.2-(dist.)]-----|
G|---------------------------------------------------------------|
D|-9999999-7777777777777--77--7----------------------------------|
A|-9999999-7777777777777--77--7----------------------------------|
D|-9999999-7777777777777--77--7----------------------------------|


 Chorus

  Gtr.1 (dist.)
e|---------------------------------------------------------------|
B|---------------------------------------------------------------|
G|---------------------------------------------------------------|
D|-000000000000-777777777777-999999999999-555555555555—----------|
A|-000000000000-777777777777-999999999999-555555555555-----------|
D|-000000000000-777777777777-999999999999-555555555555-----------|

                        P.M-|                       P.M-|
e|---------------------------------------------------------------|
B|---------------------------------------------------------------|
G|---------------------------------------------------------------|
D|-00000000000-777777777--777--99999999999-555555555--555--------|
A|-00000000000-777777777--777--99999999999-555555555--555--------|
D|-00000000000-777777777--777--99999999999-555555555--555--------|

  v. quiet in background but can just be heard. 1st part under D,A,B chords. 2nd part 
G chord on both times through chorus.
  Gtr.2 (clean)
e|------------------|--------------------------------------------|
B|------------------|--------------------------------------------|
G|-9--7----7-9—(X3)-|-9--7---7-9-9-9-(X1)------------------------|
D|------9-----------|------9-------------------------------------|
A|------------------|--------------------------------------------|
D|------------------|--------------------------------------------|

  Break
  Gtr.2 (dist.)
e|---------------------------------------------------------------|
B|---------------------------------------------------------------|
G|---------------------------------------------------------------|
D|---------------------------------------------------------------|
A|-4b(6)r-0-4----------------------------------------------------|
D|---------------------------------------------------------------|

  Verse 2
  Gtr.1 (dist.)                            P.M.--------------------|
e|-----------------------------------------------------------------|
B|-----------------------------------------------------------------|
G|-----------------------------------------------------------------|
D|-555-x-555-x-555-x-555-x-999-x-999-x-777--0----------------------|
A|-555-x-555-x-555-x-555-x-999-x-999-x-999—---2-0------------------|
D|-555-x-555-x-555-x-555-x-999-x-999-x-999--------4-0--------------|
                                       ^
This fill below comes in on this note--|

  Gtr.2 (dist.)
e|---------------------------------------------------------------|
B|---------------------------------------------------------------|
G|-------7-9b(11)-7----------------------------------------------|
D|---7-9----------|--9-7-----------------------------------------|
A|-9--------------|------9-7-------------------------------------|
D|----------------|----------------------------------------------|
                  |
           On this note Gtr.1 plays the P.M. notes above

  Gtr.1 (dist.)                       P.M---|
e|---------------------------------------------------------------|
B|---------------------------------------------------------------|
G|---------------------------------------------------------------|
D|-555-x-555-x-555-x-555-\-222-444-555-555555---7--7-------------|
A|-555-x-555-x-555-x-555-\-222-444-555-555555---7--7-------------|
D|-555-x-555-x-555-x-555-\-222-444-555-555555---7--7-------------|

  Pre-chorus
  Gtr.1 (dist.)   P.M-|
e|---------------------------------------------------------------|
B|---------------------------------------------------------------|
G|------------------------------------6b(8)----------------------|
D|-999999999999999--999--555555555555-------999999999999999------|
A|-999999999999999--999--555555555555-------999999999999999------|
D|-999999999999999--999--555555555555-------999999999999999------|

1st bend when Dave says "for" he emphasizes it and the guitar backs it.
                    P.M-|
e|---------------------------------------------------------------|
B|----------[7b(9)--------7b(9)-played-by-Gtr.2-(dist.)]---------|
G|---------------------------------------------------------------|
D|-999-7777777777777--77--7--------------------------------------|
A|-999-7777777777777--77--7--------------------------------------|
D|-999-7777777777777--77--7--------------------------------------|


 Chorus

  Gtr.1 (dist.)
e|---------------------------------------------------------------|
B|---------------------------------------------------------------|
G|---------------------------------------------------------------|
D|-000000000000-777777777777-999999999999-555555555555—----------|
A|-000000000000-777777777777-999999999999-555555555555-----------|
D|-000000000000-777777777777-999999999999-555555555555-----------|

                        P.M-|                       P.M--|
e|---------------------------------------------------------------|
B|---------------------------------------------------------------|
G|---------------------------------------------------------------|
D|-00000000000-777777777--777--99999999999-555555555--5555-------|
A|-00000000000-777777777--777--99999999999-555555555--5555-------|
D|-00000000000-777777777--777--99999999999-555555555--5555-------|

  v. quiet in background but can just be heard. 1st part under D,A,B chords. 2nd part 
G chord on both times through chorus.
  Gtr.2 (clean)
e|------------------|--------------------------------------------|
B|------------------|--------------------------------------------|
G|-9--7----7-9—(X3)-|-9--7---7-9-9-9-(X1)------------------------|
D|------9-----------|------9-------------------------------------|
A|------------------|--------------------------------------------|
D|------------------|--------------------------------------------|

  Interlude

  Gtr.1 (clean)
e|-10--9---------------------------------------------------------|
B|------------14-------------------------------------------------|
G|--------12-----------------------------------------------------|
D|---------------------------------------------------------------|X5.5
A|---------------------------------------------------------------|
D|---------------------------------------------------------------|

Played over picking above

  Gtr.2 (slight dist.)
e|---------------------------------------------------------------|
B|---------------------------------------------------------------|
G|---------------------------------------------------------------|
D|-xx---xxx-x--xxx-xx--xxx-x--xxx-xx--xxx-x--xxx-xx--xxx-x-------|
A|-xx---xxx-x--xxx-xx--xxx-x--xxx-xx--xxx-x--xxx-xx--xxx-x-------|
D|-xx---xxx-x--xxx-xx--xxx-x--xxx-xx--xxx-x--xxx-xx--xxx-x—-11\--|

Interlude pt.2
                                             (When Dave Screams "chasing
                                              faster" do the p.m.)
  Gtr.1 (dist)                                        P.M------------------|
e|-------------------------------------------------------------------------|
B|-----------------------------X4------------------------------------------|
G|-------------------------------------------------------------------------|
D|55555555555555555555-12-12-12-12-12-12-12-12-12-12-12-12-12-12-12-12-124-|
A|55555555555555555555—12-12-12-12-12-12-12-12-12-12-12-12-12-12-12-12-12--|
D|55555555555555555555—12-12-12-12-12-12-12-12-12-12-12-12-12-12-12-12-12--|

  Stops 3/4 way through Gtr.1 part on 2nd time through
  Gtr.2 (clean)
e|-10--9---------------------------------------------------------|
B|------------14-------------------------------------------------|
G|--------12-----------------------------------------------------|
D|---------------------------------------------------------------|X7
A|---------------------------------------------------------------|
D|---------------------------------------------------------------|


  Gtr.3 (dist) played towards end of D chord on Gtr.1 part
  P.M---------------------------------------------------------------|
e|------------------------------------------------------------------|
b|------------------------------------------------------------------|
G|------------------------------------------------------------------|
D|-12-10-----------------12-10--------------------------------------|X4
A|-------12-10--10-12~---------12-10--------------------------------|
D|-----------------------------------10-12\-------------------------|


  Part above could be played like this not sure though.
  P.M---------------------------------------------------------------|
e|------------------------------------------------------------------|
b|------------------------------------------------------------------|
G|------------------------------------------------------------------|
D|-0---------------------0------------------------------------------|X4
A|----3--0---------0--------3--0---------0--------------------------|
D|----------5---5-----------------5---3-----------------------------|

   Gtr.4 (dist.) Behind guitar 1 on 2nd time through
                   L.R.
e|----------------------------------------------------------------|
B|----------------------------------------------------------------|
G|-7---9---11--12---7---------------------------------------------|
D|-x---x---x---x----x---------------------------------------------|
A|-5---7---9---10---5---------------------------------------------|
D|----------------------------------------------------------------|

  Gtr.4 (dist.) Behind guitar 1 on 4th time through
                   L.R.
e|----------------------------------------------------------------|
B|----------------------------------------------------------------|
G|-9---11--12--14---11--------------------------------------------|
D|-x---x---x---x----x---------------------------------------------|
A|-7---9---10--12---9---------------------------------------------|
D|----------------------------------------------------------------|

  Break
  Gtr.1 (dist)
e|-------------------------|
B|-------------------------|
G|-------------------------|
D|-------------------------|
A|----4b(6)r-0-4—4b(6)r---4|
D|----------------------5--|

Chorus

  Gtr.1 (dist.)
e|---------------------------------------------------------------|
B|---------------------------------------------------------------|
G|---------------------------------------------------------------|
D|-000000000000-777777777777-999999999999-555555555555—----------|
A|-000000000000-777777777777-999999999999-555555555555-----------|
D|-000000000000-777777777777-999999999999-555555555555-----------|

                        P.M-|                       P.M-|
e|---------------------------------------------------------------|
B|---------------------------------------------------------------|
G|---------------------------------------------------------------|
D|-00000000000-777777777--777--99999999999-555555555--555--------|
A|-00000000000-777777777--777--99999999999-555555555--555--------|
D|-00000000000-777777777--777--99999999999-555555555--555--------|

  Played 4 times with each chord (e.g. 4 times under D then A etc.)
  Gtr.2 (dist)
e|---------------------------------------------------------------|
B|---------------------------------------------------------------|
G|-7b(9)----7--7-------------------------------------------------|
D|-------7-------------------------------------------------------|
A|---------------------------------------------------------------|
E|---------------------------------------------------------------|

Outro stop last time through chorus (4th time) play up to A and do this instead

 Gtr.1 (dist)
   L.R.          L.R.
e|---------------------------------------------------------------|
B|---------------------------------------------------------------|
G|[7-Gtr.2-L.R.]-------------------------------------------------|
D|-9-------------5-----------------------------------------------|
A|-9-------------5-----------------------------------------------|
E|-9-------------5-----------------------------------------------|

            
            
Suggest correction
Creating personal tab
Creating personal tab
You can edit any tab online and save it as your Personal.

You can edit, replace or remove any tab part or add personal notes – all changes will be seen only by you.

Personal tabs can be accessed anytime from any device, even offline.
Learn more »
comments
print report bad tab
4 comments total. Showing first comments.
0 reply
tom451 100 Jun 05, 2004 08:00 PM

well apparently the tabs not tabbed by a registered person but i am. anyway!!! theres a few mistakes in the tab, and here are the corrections.

1st bend when Dave says "for" he emphasizes it and the guitar backs it.
P.M-|
e|---------------------------------------------------------------|
B|--------------[7b(9)--------7b(9)-played-by-Gtr.2-(dist.)]-----|
G|---------------------------------------------------------------|
D|-9999999-7777777777777--77--7----------------------------------|
A|-9999999-7777777777777--77--7----------------------------------|
D|-9999999-7777777777777--77--7----------------------------------|

the 7b(9) are sposed to be 6b(8) on both times it is played in the song.

on the interlude pt.2 there is supposed to be no 4 at the end of the 12's.

Played 4 times with each chord (e.g. 4 times under D then A etc.)
Gtr.2 (dist)
e|---------------------------------------------------------------|
B|---------------------------------------------------------------|
G|-7b(9)----7--7-------------------------------------------------|
D|-------7-------------------------------------------------------|
A|---------------------------------------------------------------|
E|---------------------------------------------------------------|

the 7b(9) here is also sposed to be 6b(8).

well i think thats it. most of it was caused by me deing a doof!!

0 reply
Death Metaller 10 Jun 09, 2004 08:00 PM

Verse 1

e|-------------------------------------------
B|-------------------------------------------
G|-------------------------------------------
D|-55-5-x-77-7-x-55-5-x-77-7-x-99-9-x-9-9--9-
A|-55-5-x-55-5-x-55-5-x-55-5-x-99-9-x-1212-12
D|-55-5-x-55-5-x-55-5-x-55-5-x-99-9-x-9-9--9-
Im pretty sure that the first part of the verse 1 is actually played like this!

0 reply
Death Metaller 10 Jun 09, 2004 08:00 PM

Verse 1

e|------------------------------
B|------------------------------
G|------------------------------
D|-55-5-x-77-7-7-55-5-x-77-7-7--
A|-55-5-x-xx-x-x-55-5-x-xx-x-x--
D|-55-5-x-xx-x-x-55-5-x-xx-x-x--
on the second time playing the beginning of verse 1 is played like this

guest
Wanna post a correction for this tab? Suggest correction