Oops, an error
Loading. Please wait.

Mosaic bass

version 3
version 3

Whole song

Interactive

by InMe
313 views 1 this week
3 commentsread comments
1 2 3 4 5
3 more votes to show rating
add to favorites
×
Save as Personal and add changes to this tab that will be seen only by you. Learn more ›
×
You can save this tab as Personal to edit and correct it or add notes. All changes will be seen only by you. Learn more »
launch autoscroll
font size
0
reset
guitar tuner
edit
Autoscroll
slow
fast
+/-
esc
set tempo
stop
-----------------------------------------------------------------------------
			     MOSAIC - InMe
-----------------------------------------------------------------------------
Tabbed By : Louis Richards AKA MadClownDisease
e-mail: hereticnynature@hotmail.com

Tuning: Drop D

This song's very fast and as always it's quite hard to work out the timing and rythm 
tab but the riff's quite strong so you should be able to work it out. I think this is 
much 100% accurate apart from a couple of notes. Please rate.

 Intro X9 (0:19)
G|-------------|
D|-------------|
A|00-301-000-13|<**1 and 3, not 13**
D|-------------|

 Chorus X1 (0:33)                    V********1 and 3, not 13***********V
G|--------------------------------------------765-------------------------|
D|-------765--------------------------------------------------------------|
A|5-5--5-----1-1--1--331--00-301-00-13-5-5--5-----1-1--1--331-00-301-00-13|
D|------------------------------------------------------------------------|

 Verse (0:47)
G|------77---6---5------77---6---5------77---6---3------7---9---9|
D|---------------------------------------------------------------|
A|-55-5----4---3---55-5----4---3---55-5----4---5---55-5---4---7--|
D|---------------------------------------------------------------|

G|------77---6---5------77---6---5------77---6---3----------|
D|----------------------------------------------------------|
A|-55-5----4---3---55-5----4---3---55-5----4---5---55-5-5-57|
D|----------------------------------------------------------|

 Chorus X2 (1:00)

 Verse  X1 (1:26)

 Chorus X2 (1:39)

 Middle 8 X1 (2:05) *Everthing below until the intro is part of the middle 8*
G|---------------------------------------------------------------------|
D|---------------------------------------------------------------------|
A|---------------------------------------------------------------------|
D|5-7----5-7----5-7----5-7--8-8-85-7----885-7----885-7--885-7----8--8-8|

G|--------------------------------------------------|
D|--------------------------------------------------|
A|5----55----55----6--6-6-65----55----55----6--6-6-6|
D|--------------------------------------------------|

G|--7---7---7---7---7---7------7---7---7---7---7---7------|
D|--------------------------------------------------------|
A|55-555-555-555-555-555-----55-555-555-555-555-555-------|
D|------------------------------------------------------7/|

 Intro X7 (2:45)

 Chrorus X2(2:58)

 Outro X1 (3:24)
G|----------|
D|----------|
A|5----0----|
D|----------|


| /  slide up
| \  slide down
| h  hammer-on
| p  pull-off
| ~  vibrato
| +  harmonic
| x  Mute note
=============================================================================

            
            
Suggest correction
Creating personal tab
Creating personal tab
You can edit any tab online and save it as your Personal.

You can edit, replace or remove any tab part or add personal notes – all changes will be seen only by you.

Personal tabs can be accessed anytime from any device, even offline.
Learn more »
Give kudos to tab author, rate the tab!
1 2 3 4 5
comments
print report bad tab
3 comments total.
0 reply
Alreddyded 83 Apr 18, 2007 12:03 PM

Why did you tab it in Drop D when you can play it in standard tuning?

0 reply
MadClownDisease 583 Apr 18, 2007 12:23 PM

Lol, hmm I have no idea... that is actually really odd...

0 reply
MadClownDisease 583 Apr 18, 2007 12:25 PM

I think it was for the convinience of playing 5 and 7 on the d-string in the middle 8 and to show contrary to some other tabs I have seen that the verse octaving isn't based from the bottom string.

guest
You may want to rate the tab now too:
select rating
Wanna post a correction for this tab? Suggest correction