Oops, an error
Loading. Please wait.

So You Know tab

version 1
version 1

Whole song

Interactive

by InMe
1,921 views 1 this week
2 commentsread comments
1 2 3 4 5
2 more votes to show rating
add to favorites
×
Save as Personal and add changes to this tab that will be seen only by you. Learn more ›
×
You can save this tab as Personal to edit and correct it or add notes. All changes will be seen only by you. Learn more »
launch autoscroll
font size
0
reset
how to read this tab
guitar tuner
edit
Autoscroll
slow
fast
+/-
esc
set tempo
stop
....So You Know - InMe....

Tuning: Drop D

Created By BrokenWhisper

ANyother info: Couldn't remember what the harmonic symbols where so i just put a dot 
the right notes.


Intro

|------------------------------------|
|------------------------------------|
|------------------------------------|
|--0h4-------------4-----------------|
|-----3---3---------3---3------------|
|-------5-------------5--------------|

|------------------------------------|
|------------------------------------|
|------------------------------------|
|---0-----------2--------------------|
|-----3---3-------0---0--------------|
|-------5-----------2----------------|  hole thing x3 Then


Distortion
|--------------|
|--------------|
|--------------|
|---0----------|
|-----3--------|
|-------5------|


Verse

|------------------------------------|
|------------------------------------|
|------------------------------------|
|--0h4-------------4-----------------|
|-----3---3---------3---3------------|
|------5-------------5---------------|

|------------------------------------|
|------------------------------------|
|------------------------------------|
|---0-----------2--------------------|
|-----3---3-------0---0--------------|
|-------5-----------2----------------|   x4

Distortion
|--------------|
|--------------|
|--------------|
|---0----------|
|-----3--------|
|-------5------|

Chorus


|------------------------------------|
|------------------------------------|
|------------------------------------|
|---0000-0000-00--5555-5555-55-------|
|---0000-0000-00--5555-5555-55-------|
|---0000-0000-00--5555-5555-55-------|

                  **  **  **  ****
|------------------------------------|
|------------------------------------|
|------------------------------------|
|---9999-7777-77--005-005-005-0000---|
|---9999-7777-77--005-005-005-0000---|
|---9999-7777-77--005-005-005-0000---|

|------------------------------------|
|------------------------------------|
|------------------------------------|
|---0000-0000-00--5555-5555-55-------|
|---0000-0000-00--5555-5555-55-------|
|---0000-0000-00--5555-5555-55-------|

    **  **  **  **
|------------------------------------|
|------------------------------------|
|------------------------------------|
|---999-999-777-777-5-5-5------------|
|---999-999-777-777-5-5-5------------|
|---999-999-777-777-5-5-5------------|

Verse 2

|------------------------------------|
|------------------------------------|
|------------------------------------|
|--0h4-------------4-----------------|
|-----3---3---------3---3------------|
|------5-------------5---------------|

|------------------------------------|
|------------------------------------|
|------------------------------------|
|---0-----------2--------------------|
|-----3---3-------0---0--------------|
|-------5-----------2----------------|  x4


Distortion
|--------------|
|--------------|
|--------------|
|---0----------|
|-----3--------|
|-------5------|

Chorus


|------------------------------------|
|------------------------------------|
|------------------------------------|
|---0000-0000-00--5555-5555-55-------|
|---0000-0000-00--5555-5555-55-------|
|---0000-0000-00--5555-5555-55-------|

                  **  **  **  ****
|------------------------------------|
|------------------------------------|
|------------------------------------|
|---9999-7777-77--005-005-005-0000---|
|---9999-7777-77--005-005-005-0000---|
|---9999-7777-77--005-005-005-0000---|

|------------------------------------|
|------------------------------------|
|------------------------------------|
|---0000-0000-00--5555-5555-55-------|
|---0000-0000-00--5555-5555-55-------|
|---0000-0000-00--5555-5555-55-------|

    **  **  **  **
|------------------------------------|
|------------------------------------|
|------------------------------------|
|---999-999-777-777-5-5-5------------|
|---999-999-777-777-5-5-5------------|
|---999-999-777-777-5-5-5------------|

Solo

                     **
|------------------------------------|
|------------------------------------|
|--0h7-0h6---------------7b/---------|
|----------0h7-0h7/9-99--------------|
|------------------------------------|
|------------------------------------|

|-----------------|
|-----------------|
|-----------------|
|--555555-777777--|
|--555555-777777--|
|--555555-777777--|      Harmonic At the dot,
                     ** .
|------------------------------------|
|------------------------------------|
|--0h7-0h6---------------------------|
|----------0h7-0h7/9-99-9b/5---------|
|------------------------------------|
|------------------------------------|

                             .
|------------------------------------|
|--0h7-------------------------------|
|------0h9-----0h6-0h7-0h6/7/9-------|
|----------0h9-----------------------|
|------------------------------------|
|------------------------------------|

|------------------------------------|
|--10--8~----------------------------|
|---------11--9~----9~---------------|
|----------------12------------------|
|------------------------------------|
|------------------------------------|
                             .
|------------------------------------|
|--0h7-------------------------------|
|------0h9-----0h6-0h7-0h6/7/9-------|
|----------0h9-----------------------|
|------------------------------------|
|------------------------------------|

|------------------------------------|
|--10--8~----------------------------|
|---------11--9~----9~---------------|
|----------------12-----9~--11b~~~---|
|------------------------------------|
|------------------------------------|

Chorus

|------------------------------------|
|------------------------------------|
|------------------------------------|
|---0000-0000-00--5555-5555-55-------|
|---0000-0000-00--5555-5555-55-------|
|---0000-0000-00--5555-5555-55-------|

                  **  **  **  ****
|------------------------------------|
|------------------------------------|
|------------------------------------|
|---9999-7777-77--005-005-005-0000---|
|---9999-7777-77--005-005-005-0000---|
|---9999-7777-77--005-005-005-0000---|

|------------------------------------|
|------------------------------------|
|------------------------------------|
|---0000-0000-00--5555-5555-55-------|
|---0000-0000-00--5555-5555-55-------|
|---0000-0000-00--5555-5555-55-------|

    **  **  **  **
|------------------------------------|
|------------------------------------|
|------------------------------------|
|---999-999-777-777-5-5-5-7-7-7------|
|---999-999-777-777-5-5-5-7-7-7------|
|---999-999-777-777-5-5-5-7-7-7------|

Extended chorus
|------------------------------------|
|------------------------------------|
|------------------------------------|
|--00000000-55555555-9999-7777-------|
|--00000000-55555555-9999-7777-------|
|--00000000-55555555-9999-7777-------|

|-------------|
|-------------|
|-------------|
|--555555555--|
|--555555555--|
|--555555555--|

|------------------------------------|
|------------------------------------|
|------------------------------------|
|--00000000-55555555-9999-7777-------|
|--00000000-55555555-9999-7777-------|
|--00000000-55555555-9999-7777-------|

|-------------|
|-------------|
|-------------|
|--555555555--|
|--555555555--|
|--555555555--|

Solo Again


                     **
|------------------------------------|
|------------------------------------|
|--0h7-0h6---------------7b/---------|
|----------0h7-0h7/9-99--------------|
|------------------------------------|
|------------------------------------|

|-----------------|
|-----------------|
|-----------------|
|--555555-777777--|
|--555555-777777--|
|--555555-777777--|      Harmonic At the dot,
                     ** .
|------------------------------------|
|------------------------------------|
|--0h7-0h6---------------------------|
|----------0h7-0h7/9-99-9b/5---------|
|------------------------------------|
|------------------------------------|

                             .
|------------------------------------|
|--0h7-------------------------------|
|------0h9-----0h6-0h7-0h6/7/9-------|
|----------0h9-----------------------|
|------------------------------------|
|------------------------------------|

|------------------------------------|
|--10--8~----------------------------|
|---------11--9~----9~---------------|
|----------------12------------------|
|------------------------------------|
|------------------------------------|
                             .
|------------------------------------|
|--0h7-------------------------------|
|------0h9-----0h6-0h7-0h6/7/9-------|
|----------0h9-----------------------|
|------------------------------------|
|------------------------------------|

|------------------------------------|
|--10--8~----------------------------|
|---------11--9~----9~---------------|
|----------------12------------------|
|------------------------------------|
|------------------------------------|

Outro

|------------------------------------|
|------------------------------------|
|------------------------------------|
|--0h4-------------4-----------------|
|-----3---3---------3---3------------|
|-------5-------------5--------------|

|------------------------------------|
|------------------------------------|
|------------------------------------|
|---0-----------2--------------------|
|-----3---3-------0---0--------------|
|-------5-----------2----------------|  x6

....End :D....

            
            
Suggest correction
Creating personal tab
Creating personal tab
You can edit any tab online and save it as your Personal.

You can edit, replace or remove any tab part or add personal notes – all changes will be seen only by you.

Personal tabs can be accessed anytime from any device, even offline.
Learn more »
Give kudos to tab author, rate the tab!
1 2 3 4 5
comments
print report bad tab
2 comments total.
0 reply
Rickenbastard 10 Aug 29, 2007 01:42 PM

It's tabbed upside down

0 reply
rizo299 31 Dec 29, 2008 09:23 AM

^^ I just noticed that. confusing as hell

guest
You may want to rate the tab now too:
select rating
Wanna post a correction for this tab? Suggest correction