Oops, an error
Loading. Please wait.

You Wont Hear From Me Again tab

version 2
version 2

Whole song

by InMe
1,092 views 1 this week
no commentswrite comment
1 2 3 4 5
3 more votes to show rating
add to favorites
×
Save as Personal and add changes to this tab that will be seen only by you. Learn more ›
×
You can save this tab as Personal to edit and correct it or add notes. All changes will be seen only by you. Learn more »
launch autoscroll
font size
0
reset
how to read this tab
guitar tuner
edit
Autoscroll
slow
fast
+/-
esc
set tempo
stop
Author
You Wont Hear From Me Again by Inme 

This is my first tab, and its tabbed by ear, so sorry for any mistakes! 

Tuning: Drop D


Intro

e|-------------------------------------------------------------|
b|-1-----1-----1-----------------------------------------0-----|
g|---2-----2-----2----------2-----------1-------1-2-1----------|
d|-----2-----2-----2----------0-----------0--------------------| X 2
a|-------0-----0----------3-----------2------------------------|
D|---------------------3-----------2---------------------------|


e|--------------------------------------------------------------|
b|---1111-1-1-1-1111--------------------------------------------|
g|---2222-2-2-2-2222---------7777-7-7-7-7777--------------------|
d|---2222-2-2-2-2222-X 2-----7777-7-7-7-7777-X 2----------------|
a|---0000-0-0-0-0000---------5555-5-5-5-5555--------------------|
D|--------------------------------------------------------------|


e|--------------------------------------------------------------|
b|---1111-1-1-1-1111--------------------------------------------|
g|---2222-2-2-2-2222---------7777-7-7-7-7777----------5h7p5-----|
d|---2222-2-2-2-2222-X 2-----7777-7-7-7-7777-X 2------------7---|
a|---0000-0-0-0-0000---------5555-5-5-5-5555--------------------|
D|--------------------------------------------------------------|


e|--------------------------------------------------------------|
b|---1111-1-1-1-1111--------------------------------------------|
g|---2222-2-2-2-2222---------7777-7-7-7-7777--------------------|
d|---2222-2-2-2-2222-(X 2)---7777-7-7-7-7777-(X 2)--------------|
a|---0000-0-0-0-0000---------5555-5-5-5-5555--------------------|
D|--------------------------------------------------------------|

Lead Guitar
e|--------------------------------------------------------------|
b|--------------------------------------------------------------|
g|---9-------7-9-11-------12-11---------------------------------|
d|---x-(X 13)x-x-x-(X 13)-x--x-----REPEAT TWICE-----------------|
a|---7-------5-7-9--------10-9----------------------------------|
D|--------------------------------------------------------------|


Verse



e|--/5-5-4----------------5-4------------|
b|-----------5/7---7/9---------5/7-------|
g|---------------------------------------|
d|---------------------------------------|
a|---------------------------------------|
D|---------------------------------------|


e|-------------------------------------------------|
b|---11111---------------------11111---------------|
g|---22222---------1/222/4444--22222---------------|
d|---22222--3322---------------22222--3322---------|
a|---00000--3322---------------00000--3322---------|
D|----------3322----------------------3322---4-2---|


Chorus

e|------------------------------------------------------------|
b|------------------------------------------------------------|
g|-------------------------------------------------1/222/4444-|
d|---0-----------4-----------7-----------2--------------------|
a|---0-(x 8)-----4-(x 8)-----7-(x 8)-----2-(x 4)--------------|
D|---0-----------4-----------7-----------2--------------------|



e|------------------------------------------------------------|
b|------------------------------------------------------------|
g|-------------------------------------------------4444/2222--|
d|---0-----------4-----------7-----------2--------------------|
a|---0-(x 8)-----4-(x 8)-----7-(x 8)-----2-(x 4)--------------|
D|---0-----------4-----------7-----------2--------------------|


e|------------------------------------------------------------|
b|------------------------------------------------------------|
g|-------------------------------------------------1/222/4444-|
d|---0-----------4-----------7-----------2--------------------|
a|---0-(x 8)-----4-(x 8)-----7-(x 8)-----2-(x 4)--------------|
D|---0-----------4-----------7-----------2--------------------|


e|------------------------------------------------------------|
b|------------------------------------------------------------|
g|------------------------------------------------------------|
d|---0-----------4-----------7-----------22--22--2------------|
a|---0-(x 8)-----4-(x 8)-----7-(x 8)-----22--22--2------------|
D|---0-----------4-----------7-----------22--22--2------------|


2ND Verse 

e|--/5-5-4----------------5-4------------|
b|-----------5/7---7/9---------5/7-------|
g|---------------------------------------|
d|---------------------------------------|
a|---------------------------------------|
D|---------------------------------------|


e|---------------------------------------------------|
b|---11111---------------------11111-----------------|
g|---22222---------1/222/4444--22222-----------------|
d|---22222--3322---------------22222--3322-----------|
a|---00000--3322---------------00000--3322-----------|
D|----------3322----------------------3322---4-2-7-6-|


Chorus

e|------------------------------------------------------------|
b|------------------------------------------------------------|
g|-------------------------------------------------1/222/4444-|
d|---0-----------4-----------7-----------2--------------------|
a|---0-(x 8)-----4-(x 8)-----7-(x 8)-----2-(x 4)--------------|
D|---0-----------4-----------7-----------2--------------------|



e|------------------------------------------------------------|
b|------------------------------------------------------------|
g|-------------------------------------------------4444/2222--|
d|---0-----------4-----------7-----------2--------------------|
a|---0-(x 8)-----4-(x 8)-----7-(x 8)-----2-(x 4)--------------|
D|---0-----------4-----------7-----------2--------------------|


e|------------------------------------------------------------|
b|------------------------------------------------------------|
g|-------------------------------------------------1/222/4444-|
d|---0-----------4-----------7-----------2--------------------|
a|---0-(x 8)-----4-(x 8)-----7-(x 8)-----2-(x 4)--------------|
D|---0-----------4-----------7-----------2--------------------|


e|------------------------------------------------------------|
b|------------------------------------------------------------|
g|------------------------------------------------------------|
d|---0-----------4-----------7-----------22--22--2------------|
a|---0-(x 8)-----4-(x 8)-----7-(x 8)-----22--22--2------------|
D|---0-----------4-----------7-----------22--22--2------------|

Breakdown

e|----------------------------------------------------------------|
b|----------------------------------------------------------------|
g|----------------------------------------------------------------|
d|----------------------------------------------------------------|
a|----------------------------------------------------------------|
D|-8h11-0-0-0-8h11-0-0-9h12-0-0-8h11-0-0-8h11-0-0-9h12-0-0-8/12b--|


e|-------------------------------------------------------|
b|-------------------------------------------------------|
g|------------------11p8---------------------------------|
d|-----------------------10p8---------------4-3-2--------|
a|----------------------------10p8----------4-3-2--------|
D|-0-0-0-8h11-0-0-0-----------------9-8-----4-3-2--------|

e|----------------------------------------------------------------|
b|----------------------------------------------------------------|
g|----------------------------------------------------------------|
d|----------------------------------------------------------------|
a|----------------------------------------------------------------|
D|-8h11-0-0-0-8h11-0-0-9h12-0-0-8h11-0-0-8h11-0-0-9h12-0-0-8/12b--|


e|----------------------------------------------------------|
b|----------------------------------------------------------|
g|------------------11p8------------------------------------|
d|-----------------------10p8---------------4-3-2---7-6-5---|
a|----------------------------10p8----------4-3-2---7-6-5---|
D|-0-0-0-8h11-0-0-0-----------------9-8-----4-3-2---7-6-5---|


e|-------------------------------------------------------|
b|-----6-----7-----9--9------9-----11--------------------|
g|-----7-----9-----11-11-----11----12--------------------|
d|-----0-----0-----0--0------0-----0---------------------|
a|-------------------------------------------------------|
D|-------------------------------------------------------|


Solo

e|----------------------------------------------------------------|
b|-13b-13b-13b-12-10-12-10-8-10-8-3/19-19-20-22-10-19-------------|
g|----------------------------------------------------------------|
d|----------------------------------------------------------------|
a|----------------------------------------------------------------|
D|----------------------------------------------------------------|


e|-19-17-15-14-12h14-10h12-8h10-----------------------------------|
b|------------------------------/6/8/10/11/10/11/13/11/10/11/7----|
g|-------------------------------------------------------------9--|
d|----------------------------------------------------------------|
a|----------------------------------------------------------------|
D|----------------------------------------------------------------|

                                        
e|----------------------------------------------------------------|
b|----------------------------------------------------------------|
g|--9--9/11/9--11/7---14-14b--12-12b--11-11b---REPEAT TWICE-------|
d|----------------------------------------------------------------|
a|----------------------------------------------------------------|
D|----------------------------------------------------------------|

        
e|-------------------------------------------14h17p16--14h17p16---|
b|--19-19b-17-19-21-22-22-21-19-21-19----19-----------------------|
g|------------------------------------21--------------------------|
d|----------------------------------------------------------------|
a|----------------------------------------------------------------|
D|----------------------------------------------------------------|

    
e|-17/19--19b17-19b-19b-19b-17-----12h14-(X 13)-------------------|
b|-----------------------------19---------------------------------|
g|----------------------------------------------------------------|
d|----------------------------------------------------------------|
a|----------------------------------------------------------------|
D|----------------------------------------------------------------|

Rhythm underneath solo

e|------------------------------------------------------------|
b|------------------------------------------------------------|
g|------------------------------------------------------------|
d|---0-0-0-0----4-4-4-4----0-0-0-0----4-4444444444444---------|
a|---0-0-0-0----4-4-4-4----0-0-0-0----4-4444444444444---------|
D|---0-0-0-0----4-4-4-4----0-0-0-0----4-4444444444444---------|
     (P.M)      (P.M)      (P.M)          (ALL P.M)

Chorus

e|------------------------------------------------------------|
b|------------------------------------------------------------|
g|-------------------------------------------------4444/2222--|
d|---0-----------4-----------7-----------2--------------------|
a|---0-(x 8)-----4-(x 8)-----7-(x 8)-----2-(x 4)--------------|
D|---0-----------4-----------7-----------2--------------------|


e|------------------------------------------------------------|
b|------------------------------------------------------------|
g|-------------------------------------------------1/222/4444-|
d|---0-----------4-----------7-----------2--------------------|
a|---0-(x 8)-----4-(x 8)-----7-(x 8)-----2-(x 4)--------------|
D|---0-----------4-----------7-----------2--------------------|


e|------------------------------------------------------------|
b|------------------------------------------------------------|
g|------------------------------------------------------------|
d|---0-----------4-----------7-----------22--22--2------------|
a|---0-(x 8)-----4-(x 8)-----7-(x 8)-----22--22--2------------|
D|---0-----------4-----------7-----------22--22--2------------|

Breakdown

e|----------------------------------------------------------------|
b|----------------------------------------------------------------|
g|----------------------------------------------------------------|
d|----------------------------------------------------------------|
a|----------------------------------------------------------------|
D|-8h11-0-0-0-8h11-0-0-9h12-0-0-8h11-0-0-8h11-0-0-9h12-0-0-8/12b--|


e|-------------------------------------------------------|
b|-------------------------------------------------------|
g|------------------11p8---------------------------------|
d|-----------------------10p8---------------4-3-2--------|
a|----------------------------10p8----------4-3-2--------|
D|-0-0-0-8h11-0-0-0-----------------9-8-----4-3-2--------|

e|----------------------------------------------------------------|
b|----------------------------------------------------------------|
g|----------------------------------------------------------------|
d|----------------------------------------------------------------|
a|----------------------------------------------------------------|
D|-8h11-0-0-0-8h11-0-0-9h12-0-0-8h11-0-0-8h11-0-0-9h12-0-0-8/12b--|


e|----------------------------------------------------------|
b|----------------------------------------------------------|
g|------------------11p8------------------------------------|
d|-----------------------10p8---------------4-3-2---7-6-5---|
a|----------------------------10p8----------4-3-2---7-6-5---|
D|-0-0-0-8h11-0-0-0-----------------9-8-----4-3-2---7-6-5---|

            
            
Suggest correction
Creating personal tab
Creating personal tab
You can edit any tab online and save it as your Personal.

You can edit, replace or remove any tab part or add personal notes – all changes will be seen only by you.

Personal tabs can be accessed anytime from any device, even offline.
Learn more »
Give kudos to tab author, rate the tab!
1 2 3 4 5
comments
print report bad tab
guest
You may want to rate the tab now too:
select rating
Wanna post a correction for this tab? Suggest correction