Oops, an error
Loading. Please wait.

Nothings Left tab

version 3
version 3

Whole song

Interactive

649 views 3 this week
no commentswrite comment
1 2 3 4 5
2 more votes to show rating
add to favorites
×
Save as Personal and add changes to this tab that will be seen only by you. Learn more ›
×
You can save this tab as Personal to edit and correct it or add notes. All changes will be seen only by you. Learn more »
launch autoscroll
font size
0
reset
how to read this tab
guitar tuner
edit
Autoscroll
slow
fast
+/-
esc
set tempo
stop
Author
This is an amazing song by ICP off the Amazing Jackel
Brothers Album
I tabbed out the piano version because
the other tabs chords are right on but
Just not the piano parts so here ya go.......Woot Woot

[Intro] 0.43sec

   Dm        Cadd9       G
e:-1~---------0~---------3~----------------------|
B:-3~---------3~---------3~----------------------|
G:-2~---------0~---------0~----------------------|
D:-0~---------2~---------0~----------------------|
A:------------3~---------2~----------------------|
E:-----------------------3~----------------------|

   Dm        Cadd9       G
e:-1~---------0~--------------3--------------------3----|
B:-3~---------3~----------------------------------------|
G:-2~---------0~----------------------------------------|
D:-0~---------2~----------------------------------------|
A:------------3~------------2-------------------2-------|
E:-----------------------3--------3-33-3-3-3-3----------|


[Verse]

Just goes back and forth from Riff A to Riff B
(Riff A)
    Dm                Cadd9               G
e:---1~-----------------0~----------------3-------------|
B:---3~-----------------3~----------------3-------------|
G:---2~-----------------0~----------------0-------------|
D:---0-0-0-0-0-0-0-0----2~----------------0-------------|
A:----------------------3-3-3-3-3-3-3-3---2-------------|
E:----------------------------------------3-3(x16)------|


   Dm        Cadd9       G
e:-1~---------------0~-----------------------3----------------------------------|
B:-3~---------------3~----------------------------------------------------------|
G:-2~---------------0~----------------------------------------------------------|
D:-0-00-0-0-0-0-0---2~----------------------------------------------------------|
A:------------------3-3-3-3-3-3-3-3--------2------------------------------------|
E:--------------------------------------3------3-3-3-3-3-3-3--33-3-3-3-3-3-3----|


(RiffB)
    Dm                Cadd9               G
e:---1~-----------------0~----------------3~------------|
B:---3~-----------------3~----------------3~------------|
G:---2~-----------------0~----------------0~------------|
D:---0-0-0-0-0-0-0-0----2~----------------0~------------|
A:----------------------3-3-3-3-3-3-3-3---2~------------|
E:----------------------------------------3-3(x16)------|

  Dm                Cadd9                  G
e:-1~---------------0~-----------------------3-------------------------------|
B:-3~---------------3~-------------------------------------------------------|
G:-2~---------------0~-------------------------------------------------------|
D:-0-00-0-0-0-0-0---2~-------------------------------------------------------|
A:------------------3-3-3-3-3-3-3-3--------2---------------------------------|
E:--------------------------------------3------3-3-3-3-3-3-3-33-3-3-3-3-3-3--|
Not to be confusing but during the verse theres another
quick slide inbetween the Cadd9 and the G Chord I just play it
everytime cuz it sounds good but you can figure out where in the
song he does it...

e:-1---------------0--------------------3-------|
B:-3---------------3--------------------3-------|
G:-2---------------0--------------------0-------|
D:-0-0-0-0-0-0-0-0-2---------------2\3--0-------|
A:-----------------3-3-3-3-3-3-3-3------2-------|
E:--------------------------------------3-3-3-3-|

Now for the Chorus (i guess you'd call it that)
Wagons Come......part

For this part i think it sounds good to do the power chords
to the chords in the intro and verse.......
just find the strum pattern then in the backround
you'll hear some simple notes being played i tried to figure
them out but im not sure its 100%


  Dm        Cadd9        G
e:-0~---------3~---------0~----------------------|
B:-6~---------3~---------0~----------------------|
G:-7~---------5~---------4~----------------------|
D:-5~---------5~---------5~----------------------|
A:-5~---------3~---------5~----------------------|
E:-0~--------------------3~----------------------|


From 2:45sec through 4:17 play this.....
e:---------10p8-\------------      e:-------10-8------------------|
B:--------------=(x30 or so)- or   B:----10-----------------------|
G:-12h14--------/------------      G:-12--------------------------|
D:---------------------------      D:---------------------------
A:---------------------------      A:---------------------------
E:---------------------------      E:---------------------------


then:


[Solo]
e:-10b-10h12p10-12b-10-10-10-10--10~-10h12p10-12b-10-10-10-10--8-10-8-10--|
B:------------------------------------------------------------------------|
G:------------------------------------------------------------------------|
D:------------------------------------------------------------------------|
A:------------------------------------------------------------------------|
E:------------------------------------------------------------------------|

Ater that riff it changes to;
4:39ish
e:----10----10----10----10----10----10----12b----10---|
B:-10----10----10----10----10----10----10-----10------|
G:----------------------------------------------------|
D:----------------------------------------------------|
A:----------------------------------------------------|
E:----------------------------------------------------|

then they just hit from 8-10 on the e: string
with maybe a few bends at 12 then fade out.....

this is my first tab ever and i sat here listening
to the song hundreds of times it sounds pretty right
to me if you have any questions or ideas how to make
it better let me know id be happy to go over it with you
Wickid Clowns Never Die!!!!! Woot Woot
DJQTBOY1@msn.com
Thanx Lots
-Dylan

            
            
Suggest correction
Creating personal tab
Creating personal tab
You can edit any tab online and save it as your Personal.

You can edit, replace or remove any tab part or add personal notes – all changes will be seen only by you.

Personal tabs can be accessed anytime from any device, even offline.
Learn more »
Give kudos to tab author, rate the tab!
1 2 3 4 5
comments
print report bad tab
guest
You may want to rate the tab now too:
select rating
Wanna post a correction for this tab? Suggest correction