Oops, an error
Loading. Please wait.

Victory tab

178 views 3 this week
1 commentread comment
1 2 3 4 5
3 more votes to show rating
add to favorites
×
Save as Personal and add changes to this tab that will be seen only by you. Learn more ›
×
You can save this tab as Personal to edit and correct it or add notes. All changes will be seen only by you. Learn more »
launch autoscroll
font size
0
reset
how to read this tab
guitar tuner
edit
Autoscroll
slow
fast
+/-
esc
set tempo
stop
Author
Difficulty
intermediate
"Victory" by Intensifire from the album "Love Runs Deep"

4/4 time signature
~128 bpm

I've written on the anacrusis an approximate place of where i put the beats on each bar for reference


[Intro]

    1       2       3        4
e|--------------------------------------|
B|--------------------------------------|
G|--------------------------------------|
D|--------------------------------------|  <--anacrusis 
A|--------------------------------------| 
E|--------------------------------------|
                             I    will

        D#        Cm                                  Gm       F
e|--------------------------------------|--------------------------------------|
B|--------------------------------------|--------------3-----------------------|
G|------3-------------------------------|----------------------5~--------------|
D|----------------5~--------------------|--------------------------------------|
A|--------------------------------------|--------------------------------------|
E|--------------------------------------|--------------------------------------|
       take the stand              and    put  my   pride  be   hind   me

        D#        Cm                                  Gm       F
e|--------------------------------------|--------------------------------------|
B|--------------------------------------|--------------3-----------------------|
G|------3-------------------------------|----------------------5~--------------|
D|----------------5~--------------------|--------------------------------------|
A|--------------------------------------|--------------------------------------|
E|--------------------------------------|--------------------------------------|
       raise   my   voice        for          fear no  longer  binds   me

        D#        Cm                                  Gm       F
e|--------------------------------------|--------------------------------------|
B|--------------------------------------|--------------3-----------------------|
G|------3-------------------------------|----------------------5~--------------|
D|----------------5~--------------------|--------------------------------------|
A|--------------------------------------|--------------------------------------|
E|--------------------------------------|--------------------------------------|
              I am   confi-    dent   with-   in     Your    love,    for 

        D#        Cm                                  Gm       F
e|--------------------------------------|--------------------------------------|
B|--------------------------------------|--------------3-----------------------|
G|------3-------------------------------|----------------------5~--------------|
D|----------------5~--------------------|--------------------------------------|
A|--------------------------------------|--------------------------------------|
E|--------------------------------------|--------------------------------------|
  You      are      more     than           en-    ough   


[Interlude]

(Palm mute this part)
        D#        Cm                                  Gm       F
e|--------------------------------------|--------------------------------------|
B|---8---8---8----6---6---6---6---6-----|--------------------------------------|
G|--------------------------------------|-----7--7---7---5---5---5---5---------|
D|--------------------------------------|--------------------------------------|
A|--------------------------------------|--------------------------------------|
E|--------------------------------------|--------------------------------------|

        D#        Cm                                  Gm       F
e|--------------------------------------|--------------------------------------|
B|---8---8---8----6---6---6---6---6-----|--------------------------------------|
G|--------------------------------------|-----7--7---7---5---5---5---5---------|
D|--------------------------------------|--------------------------------------|
A|--------------------------------------|--------------------------------------|
E|--------------------------------------|--------------------------------------|
                                                                       I   will


[Verse]

(Palm mute all the way through)

        D#        Cm                            Gm    F
e|--------------------------------------|--------------------------------------|
B|---8---8---8----6---6---6---6---6-----|--------------------------------------|
G|--------------------------------------|-----7--7---7---5---5---5---5---------|
D|--------------------------------------|--------------------------------------|
A|--------------------------------------|--------------------------------------|
E|--------------------------------------|--------------------------------------|
    follow  you                 al-       though the  world may  call   me

        D#        Cm                            Gm    F
e|--------------------------------------|--------------------------------------|
B|---8---8---8----6---6---6---6---6-----|--------------------------------------|
G|--------------------------------------|-----7--7---7---5---5---5---5---------|
D|--------------------------------------|--------------------------------------|
A|--------------------------------------|--------------------------------------|
E|--------------------------------------|--------------------------------------|
       raise   my   voice        for          fear no  longer  binds   me

        D#        Cm                            Gm    F
e|--------------------------------------|--------------------------------------|
B|---8---8---8----6---6---6---6---6-----|--------------------------------------|
G|--------------------------------------|-----7--7---7---5---5---5---5---------|
D|--------------------------------------|--------------------------------------|
A|--------------------------------------|--------------------------------------|
E|--------------------------------------|--------------------------------------|
              I am   confi-    dent   with-   in     Your    love,    for 

        D#        Cm                            Gm    F
e|--------------------------------------|--------------------------------------|
B|---8---8---8----6---6---6---6---6-----|--------------------------------------|
G|--------------------------------------|-----7--7---7--5--5~------------------|
D|--------------------------------------|--------------------------------------|
A|--------------------------------------|--------------------------------------|
E|--------------------------------------|--------------------------------------|
  You      are      more     than           en-    ough  


[Chorus 1]

Guitar 1:

        D#                Cm                    Gm              F
e|--------------------------------------|--------------------------------------|     
B|--------------------------------------|----------------------------8-10-11---|
G|--------------------------------------|--------------------------------------|
D|--------------------------------------|--------------------------------------|
A|--------------------------------------|--------------------------------------|
E|--------------------------------------|--------------------------------------|
                              Oh           no-   thing   can  hold   me    
  
        D#                Cm                    Gm              F
e|--8h10~-----8-------------8-----------|--------------------------------------|
B|--------------10-8-----10-------------|----------------------------8-10-11---|
G|--------------------------------------|--------------------------------------|
D|--------------------------------------|--------------------------------------|
A|--------------------------------------|--------------------------------------|
E|--------------------------------------|--------------------------------------|
  ba-                  ck       I'm       strong-   er  with-  in   Your   ha-   

        D#                Cm                    Gm              F 
e|--8h10~-----8-------------8-----------|--------------------------------------|
B|--------------10-8-----10-------------|----------------------------8-10-11---|
G|--------------------------------------|-------------------------10-----------|
D|--------------------------------------|--------------------------------------|
A|--------------------------------------|--------------------------------------|
E|--------------------------------------|--------------------------------------|
                           -ands      oh   vic-    tory is  in     Yo-    

        D#                Cm                    Gm              F
e|--8h10~-----8-------------8-----------|--------------------------------------|
B|--------------10-8-----10-------------|----------------------------8-10-11---|
G|--------------------------------------|--------------------------------------|
D|--------------------------------------|--------------------------------------|
A|--------------------------------------|--------------------------------------|
E|--------------------------------------|--------------------------------------|
                          -ou              vic-    tory is  in     Yo-

        D#                Cm                    Gm              F
e|--8h10~-----8-------------8-----------|--------------------------------------|
B|--------------10-8-----10-------------|----------------------------8-10-11---|
G|--------------------------------------|--------------------------------------|
D|--------------------------------------|--------------------------------------|
A|--------------------------------------|--------------------------------------|
E|--------------------------------------|--------------------------------------|
                     -ou oo ooh     oh     vic-    tory  is  in    You!


Guitar 2:

(Palm mute for chorus) 
        D#                Cm                    Gm              F
e|--------------------------------------|--------------------------------------|
B|-----4------4-------------------------|--------------------------------------|
G|------------------------5---5---5-----|--------------------------------------|
D|--------------------------------------|------5------5---------3---3---3------|
A|--------------------------------------|--------------------------------------|
E|--------------------------------------|--------------------------------------|
                              Oh           no-   thing   can  hold   me      

        D#                Cm                    Gm              F
e|--------------------------------------|--------------------------------------|
B|-----4------4-------------------------|--------------------------------------|
G|------------------------5---5---5-----|--------------------------------------|
D|--------------------------------------|------5------5---------3---3---3------|
A|--------------------------------------|--------------------------------------|
E|--------------------------------------|--------------------------------------|
  ba-                  ck       I'm       strong-   er  with-  in   Your   ha-   

        D#                Cm                    Gm              F 
e|--------------------------------------|--------------------------------------|
B|-----4------4-------------------------|--------------------------------------|
G|------------------------5---5---5-----|--------------------------------------|
D|--------------------------------------|------5------5---------3---3---3------|
A|--------------------------------------|--------------------------------------|
E|--------------------------------------|--------------------------------------|
                           -ands      oh   vic-    tory is  in     Yo-    

        D#                Cm                    Gm              F
e|--------------------------------------|--------------------------------------|
B|-----4------4-------------------------|--------------------------------------|
G|------------------------5---5---5-----|--------------------------------------|
D|--------------------------------------|------5------5---------3---3---3------|
A|--------------------------------------|--------------------------------------|
E|--------------------------------------|--------------------------------------|
                          -ou              vic-    tory is  in     Yo-

        D#                Cm                    Gm              F
e|--------------------------------------|--------------------------------------|
B|-----4------4-------------------------|--------------------------------------|
G|------------------------5---5---5-----|--------------------------------------|
D|--------------------------------------|------5------5---------3---3---3------|
A|--------------------------------------|--------------------------------------|
E|--------------------------------------|--------------------------------------|
                     -ou oo ooh!     oh     vic-    tory  is  in    You!


[Instrumental 1]

Guitar 1:

        D#                Cm                    Gm              F
e|--8h10~-----8-------------8-----------|--------------------------------------|
B|--------------10-8-----10-------------|----------------------------8-10-11---|
G|--------------------------------------|--------------------------------------|
D|--------------------------------------|--------------------------------------|
A|--------------------------------------|--------------------------------------|
E|--------------------------------------|--------------------------------------|
         
        D#                Cm                    Gm              F
e|--8h10~-----8-------------8-----------|--------------------------------------|
B|--------------10-8-----10-------------|----------------------------8-10-11---|
G|--------------------------------------|-------------------------10-----------|
D|--------------------------------------|--------------------------------------|
A|--------------------------------------|--------------------------------------|
E|--------------------------------------|--------------------------------------|

        D#                Cm                    Gm              F
e|--8h10~-----8-------------8-----------|--------------------------------------|
B|--------------10-8-----10-------------|----------------------------8-10-11---|
G|--------------------------------------|--------------------------------------|
D|--------------------------------------|--------------------------------------|
A|--------------------------------------|--------------------------------------|
E|--------------------------------------|--------------------------------------|
         
        D#                Cm                    Gm              F
e|--8h10~-----8-------------8-----------|--------------------------------------|
B|--------------10-8-----10-------------|--------------------------------------|
G|--------------------------------------|--------------------------------------|
D|--------------------------------------|--------------------------------------|
A|--------------------------------------|--------------------------------------|
E|--------------------------------------|--------------------------------------|    
                                                                         I will 

Guitar 2:      

        D#                Cm                    Gm              F            
e|--------------------------------------|--------------------------------------|
B|-----4------4-------------------------|--------------------------------------|
G|------------------------5---5---5-----|--------------------------------------|
D|--------------------------------------|------5------5---------3---3---3------|
A|--------------------------------------|--------------------------------------|
E|--------------------------------------|--------------------------------------|
         
        D#                Cm                    Gm              F
e|--------------------------------------|--------------------------------------|
B|-----4------4-------------------------|--------------------------------------|
G|------------------------5---5---5-----|--------------------------------------|
D|--------------------------------------|------5------5---------3---3---3------|
A|--------------------------------------|--------------------------------------|
E|--------------------------------------|--------------------------------------|

        D#                Cm                    Gm              F
e|--------------------------------------|--------------------------------------|
B|-----4------4-------------------------|--------------------------------------|
G|------------------------5---5---5-----|--------------------------------------|
D|--------------------------------------|------5------5---------3---3---3------|
A|--------------------------------------|--------------------------------------|
E|--------------------------------------|--------------------------------------|
         
        D#                Cm                    Gm              F
e|--------------------------------------|--------------------------------------|
B|-----4------4-------------------------|--------------------------------------|
G|------------------------5---5---5-----|--------------------------------------|
D|--------------------------------------|------5------5---------3---3---3------|
A|--------------------------------------|--------------------------------------|
E|--------------------------------------|--------------------------------------| 
                                                                         I will

[Verse]

(Palm mute all the way through)

        D#        Cm                            Gm    F
e|--------------------------------------|--------------------------------------|
B|---8---8---8----6---6---6---6---6-----|--------------------------------------|
G|--------------------------------------|-----7--7---5---5---5---5---5---------|
D|--------------------------------------|--------------------------------------|
A|--------------------------------------|--------------------------------------|
E|--------------------------------------|--------------------------------------|
    follow  you                 al-       though the  world may  call   me

        D#        Cm                            Gm    F
e|--------------------------------------|--------------------------------------|
B|---8---8---8----6---6---6---6---6-----|--------------------------------------|
G|--------------------------------------|-----7--7---5---5---5---5---5---------|
D|--------------------------------------|--------------------------------------|
A|--------------------------------------|--------------------------------------|
E|--------------------------------------|--------------------------------------|
       raise   my   voice        for          fear no  longer  binds   me

        D#        Cm                            Gm    F
e|--------------------------------------|--------------------------------------|
B|---8---8---8----6---6---6---6---6-----|--------------------------------------|
G|--------------------------------------|-----7--7---5---5---5---5---5---------|
D|--------------------------------------|--------------------------------------|
A|--------------------------------------|--------------------------------------|
E|--------------------------------------|--------------------------------------|
              I am   confi-    dent   with-   in     Your    love,    for 

        D#        Cm                            Gm    F
e|--------------------------------------|--------------------------------------|
B|---8---8---8----6---6---6---6---6-----|--------------------------------------|
G|--------------------------------------|-----7--7---5--5--5~------------------|
D|--------------------------------------|--------------------------------------|
A|--------------------------------------|--------------------------------------|
E|--------------------------------------|--------------------------------------|
  You      are      more     than           en-    ough  


[Chorus 1]

Guitar 1:

        D#                Cm                    Gm              F
e|--------------------------------------|--------------------------------------|     
B|--------------------------------------|----------------------------8-10-11---|
G|--------------------------------------|--------------------------------------|
D|--------------------------------------|--------------------------------------|
A|--------------------------------------|--------------------------------------|
E|--------------------------------------|--------------------------------------|
                              Oh           no-   thing   can  hold   me    
  
        D#                Cm                    Gm              F
e|--8h10~-----8-------------8-----------|--------------------------------------|
B|--------------10-8-----10-------------|----------------------------8-10-11---|
G|--------------------------------------|--------------------------------------|
D|--------------------------------------|--------------------------------------|
A|--------------------------------------|--------------------------------------|
E|--------------------------------------|--------------------------------------|
  ba-                  ck       I'm       strong-   er  with-  in   Your   ha-   

        D#                Cm                    Gm              F 
e|--8h10~-----8-------------8-----------|--------------------------------------|
B|--------------10-8-----10-------------|----------------------------8-10-11---|
G|--------------------------------------|-------------------------10-----------|
D|--------------------------------------|--------------------------------------|
A|--------------------------------------|--------------------------------------|
E|--------------------------------------|--------------------------------------|
                           -ands      oh   vic-    tory is  in     Yo-    

        D#                Cm                    Gm              F
e|--8h10~-----8-------------8-----------|--------------------------------------|
B|--------------10-8-----10-------------|----------------------------8-10-11---|
G|--------------------------------------|--------------------------------------|
D|--------------------------------------|--------------------------------------|
A|--------------------------------------|--------------------------------------|
E|--------------------------------------|--------------------------------------|
                          -ou              vic-    tory is  in     Yo-

        D#                Cm                    Gm              F
e|--8h10~-----8-------------8-----------|--------------------------------------|
B|--------------10-8-----10-------------|----------------------------8-10-11---|
G|--------------------------------------|--------------------------------------|
D|--------------------------------------|--------------------------------------|
A|--------------------------------------|--------------------------------------|
E|--------------------------------------|--------------------------------------|
                     -ou oo ooh     oh     vic-    tory  is  in    You!


Guitar 2:

(Palm mute for chorus) 

        D#                Cm                    Gm              F
e|--------------------------------------|--------------------------------------|
B|-----4------4-------------------------|--------------------------------------|
G|------------------------5---5---5-----|--------------------------------------|
D|--------------------------------------|------5------5---------3---3---3------|
A|--------------------------------------|--------------------------------------|
E|--------------------------------------|--------------------------------------|
                              Oh           no-   thing   can  hold   me      

        D#                Cm                    Gm              F
e|--------------------------------------|--------------------------------------|
B|-----4------4-------------------------|--------------------------------------|
G|------------------------5---5---5-----|--------------------------------------|
D|--------------------------------------|------5------5---------3---3---3------|
A|--------------------------------------|--------------------------------------|
E|--------------------------------------|--------------------------------------|
  ba-                  ck       I'm       strong-   er  with-  in   Your   ha-   

        D#                Cm                    Gm              F 
e|--------------------------------------|--------------------------------------|
B|-----4------4-------------------------|--------------------------------------|
G|------------------------5---5---5-----|--------------------------------------|
D|--------------------------------------|------5------5---------3---3---3------|
A|--------------------------------------|--------------------------------------|
E|--------------------------------------|--------------------------------------|
                           -ands      oh   vic-    tory is  in     Yo-    

        D#                Cm                    Gm              F
e|--------------------------------------|--------------------------------------|
B|-----4------4-------------------------|--------------------------------------|
G|------------------------5---5---5-----|--------------------------------------|
D|--------------------------------------|------5------5---------3---3---3------|
A|--------------------------------------|--------------------------------------|
E|--------------------------------------|--------------------------------------|
                          -ou              vic-    tory is  in     Yo-

        D#                Cm                    Gm              F
e|--------------------------------------|--------------------------------------|
B|-----4------4-------------------------|--------------------------------------|
G|------------------------5---5---5-----|--------------------------------------|
D|--------------------------------------|------5------5---------3---3---3------|
A|--------------------------------------|--------------------------------------|
E|--------------------------------------|--------------------------------------|
                     -ou oo ooh!     oh     vic-    tory  is  in    You!


[Instrumental 2]

Guitar 1:
        D#                Cm                    Gm              F
e|--8h10~-----8-------------8-----------|--------------------------------------|
B|--------------10-8-----10-------------|----------------------------8-10-11---|
G|--------------------------------------|--------------------------------------|
D|--------------------------------------|--------------------------------------|
A|--------------------------------------|--------------------------------------|
E|--------------------------------------|--------------------------------------|
       whoa               whoa             oh      oh         oh       oh
         
        D#                Cm                    Gm              F
e|--8h10~-----8-------------8-----------|--------------------------------------|
B|--------------10-8-----10-------------|----------------------------8-10-11---|
G|--------------------------------------|-------------------------10-----------|
D|--------------------------------------|--------------------------------------|
A|--------------------------------------|--------------------------------------|
E|--------------------------------------|--------------------------------------|
       whoa               whoa             oh      oh         oh       oh

        D#                Cm                    Gm              F
e|--8h10~-----8-------------8-----------|--------------------------------------|
B|--------------10-8-----10-------------|----------------------------8-10-11---|
G|--------------------------------------|--------------------------------------|
D|--------------------------------------|--------------------------------------|
A|--------------------------------------|--------------------------------------|
E|--------------------------------------|--------------------------------------|
       whoa               whoa             oh      oh         oh       oh
         
        D#                Cm                    Gm              F
e|--8h10~-----8-------------8-----------|--------------------------------------|
B|--------------10-8-----10-------------|--------------------------------------|
G|--------------------------------------|--------------------------------------|
D|--------------------------------------|--------------------------------------|
A|--------------------------------------|--------------------------------------|
E|--------------------------------------|--------------------------------------|
       whoa               whoa             oh      oh      (Fear  no  longer)


Guitar 2:       

        D#                Cm                    Gm              F      
e|--------------------------------------|--------------------------------------|
B|-----4------4-------------------------|--------------------------------------|
G|------------------------5---5---5-----|--------------------------------------|
D|--------------------------------------|------5------5---------3---3---3------|
A|--------------------------------------|--------------------------------------|
E|--------------------------------------|--------------------------------------|
       whoa               whoa             oh      oh         oh       oh
         
        D#                Cm                    Gm              F
e|--------------------------------------|--------------------------------------|
B|-----4------4-------------------------|--------------------------------------|
G|------------------------5---5---5-----|--------------------------------------|
D|--------------------------------------|------5------5---------3---3---3------|
A|--------------------------------------|--------------------------------------|
E|--------------------------------------|--------------------------------------|
       whoa               whoa             oh      oh         oh       oh

        D#                Cm                    Gm              F
e|--------------------------------------|--------------------------------------|
B|-----4------4-------------------------|--------------------------------------|
G|------------------------5---5---5-----|--------------------------------------|
D|--------------------------------------|------5------5---------3---3---3------|
A|--------------------------------------|--------------------------------------|
E|--------------------------------------|--------------------------------------|
       whoa               whoa             oh      oh         oh       oh
         
        D#                Cm                    Gm              F
e|--------------------------------------|--------------------------------------|
B|-----4------4-------------------------|--------------------------------------|
G|------------------------5---5---5-----|--------------------------------------|
D|--------------------------------------|------5------5---------3---3---3------|
A|--------------------------------------|--------------------------------------|
E|--------------------------------------|--------------------------------------| 
       whoa               whoa             oh      oh      (Fear  no  longer)


[Bridge]

   Gm                                      Am     A#                               __
e|--------------------------------------|--------------------------------------|     |
B|--------------------------------------|--------------------------------------|     |
G|-0------------------------------------|--2------3----------------------------|     |
D|--------------------------------------|--------------------------------------|     |
A|--------------------------------------|--------------------------------------|     |
E|--------------------------------------|--------------------------------------|     |
    Binds      me                                                   Freedom is       |
                                                                                     |
    Dm                                     C                                         |
e|--------------------------------------|--------------------------------------|     |
B|---3----------------------------------|--1-----------------------------------|     |
G|--------------------------------------|--------------------------------------|     |
D|--------------------------------------|--------------------------------------|     |
A|--------------------------------------|--------------------------------------|     |
E|--------------------------------------|--------------------------------------|     |
   in    you                                                I will leave my flesh    |--- x2
                                                                                     |
   Gm                                      Am     A#                                 |
e|--------------------------------------|--------------------------------------|     |
B|--------------------------------------|--------------------------------------|     |
G|-0------------------------------------|--2------3----------------------------|     |
D|--------------------------------------|--------------------------------------|     |
A|--------------------------------------|--------------------------------------|     |
E|--------------------------------------|--------------------------------------|     |
 be-  hind  me                                                          and          |
                                                                                     |
    Dm                                     C                                         |
e|--------------------------------------|--------------------------------------|     |
B|---3----------------------------------|--1-----------------------------------|     |
G|--------------------------------------|--------------------------------------|     |
D|--------------------------------------|--------------------------------------|     |
A|--------------------------------------|--------------------------------------|     |
E|--------------------------------------|--------------------------------------|  ___|
 fix       my        eyes        on        you                Fear no longer


   Gm                                      Am     A#
e|---8-----8-----8-----8-----8----------|---8-----8-----8-----8-----8----------|
B|--------------------------------------|--------------------------------------|
G|--------------------------------------|--------------------------------------|
D|--------------------------------------|--------------------------------------|
A|--------------------------------------|--------------------------------------|
E|--------------------------------------|--------------------------------------|
    Binds      me                                                   Freedom is

    Dm                                     C
e|---8-----8-----8-----8-----8----------|---8-----8-----8-----8-----8----------|
B|--------------------------------------|--------------------------------------|
G|--------------------------------------|--------------------------------------|
D|--------------------------------------|--------------------------------------|
A|--------------------------------------|--------------------------------------|
E|--------------------------------------|--------------------------------------|
   in    you                                                I will leave my flesh

   Gm                                      Am     A#
e|---8-----8-----8-----8-----8----------|---8-----8-----8-----8-----8----------|
B|--------------------------------------|--------------------------------------|
G|--------------------------------------|--------------------------------------|
D|--------------------------------------|--------------------------------------|
A|--------------------------------------|--------------------------------------|
E|--------------------------------------|--------------------------------------|
 be-  hind  me                                                          and

    Dm                                     C
e|---8-----8-----8-----8-----8----------|---8-----8-----8-----8-----8----------|
B|--------------------------------------|--------------------------------------|
G|--------------------------------------|--------------------------------------|
D|--------------------------------------|--------------------------------------|
A|--------------------------------------|--------------------------------------|
E|--------------------------------------|--------------------------------------|
 fix       my        eyes        on        you


[Chorus 2]

     N.C
e|----8--------------8-----8----8----8--|-----8----8h10p8----------------------|
B|----------11--------------------------|--------------------11---8--8-10-11---|
G|--------------------------------------|--------------------------------------|
D|--------------------------------------|--------------------------------------|
A|--------------------------------------|--------------------------------------|
E|--------------------------------------|--------------------------------------|
                              Oh           no-   thing   can  hold   me      

     F              Gm                     D#
e|--8h10~-----8-------------8-----------|--------------------------------------|
B|--------------10-8-----10-------------|----------------------------8-10-11---|
G|--------------------------------------|--------------------------------------|
D|--------------------------------------|--------------------------------------|
A|--------------------------------------|--------------------------------------|
E|--------------------------------------|--------------------------------------|
  ba-                  ck       I'm       strong-   er  with-  in   Your   ha-


     F              Gm                     D#
e|--8h10~-----8-------------8-----------|--------------------------------------|
B|--------------10-8-----10-------------|----------------------------8-10-11---|
G|--------------------------------------|-------------------------10-----------|
D|--------------------------------------|--------------------------------------|
A|--------------------------------------|--------------------------------------|
E|--------------------------------------|--------------------------------------|
                           -ands      oh   vic-    tory is  in     Yo-

     F              Gm                     D#
e|--8h10~-----8-------------8-----------|--------------------------------------|
B|--------------10-8-----10-------------|----------------------------8-10-11---|
G|--------------------------------------|--------------------------------------|
D|--------------------------------------|--------------------------------------|
A|--------------------------------------|--------------------------------------|
E|--------------------------------------|--------------------------------------|
                          -ou              vic-    tory is  in     Yo-

     F              Gm                     D#
e|--8h10~-----8-------------8-----------|--------------------------------------|
B|--------------10-8-----10-------------|----------------------------8-10-11---|
G|--------------------------------------|--------------------------------------|
D|--------------------------------------|--------------------------------------|
A|--------------------------------------|--------------------------------------|
E|--------------------------------------|--------------------------------------|
                     -ou oo ooh     Oh       no-   thing can   hold   me

     F              Gm                     D#
e|--8h10~-----8-------------8-----------|--------------------------------------|
B|--------------10-8-----10-------------|----------------------------8-10-11---|
G|--------------------------------------|--------------------------------------|
D|--------------------------------------|--------------------------------------|
A|--------------------------------------|--------------------------------------|
E|--------------------------------------|--------------------------------------|
  ba-                  ck       I'm       strong-   er  with-  in   Your   ha-

     F              Gm                     D#
e|--8h10~-----8-------------8-----------|--------------------------------------|
B|--------------10-8-----10-------------|----------------------------8-10-11---|
G|--------------------------------------|-------------------------10-----------|
D|--------------------------------------|--------------------------------------|
A|--------------------------------------|--------------------------------------|
E|--------------------------------------|--------------------------------------|
                           -ands      oh   vic-    tory is  in     Yo-

     F              Gm                     D#
e|--8h10~-----8-------------8-----------|--------------------------------------|
B|--------------10-8-----10-------------|----------------------------8-10-11---|
G|--------------------------------------|--------------------------------------|
D|--------------------------------------|--------------------------------------|
A|--------------------------------------|--------------------------------------|
E|--------------------------------------|--------------------------------------|
                          -ou              vic-    tory is  in     Yo-

     F              Gm                     D#
e|--8h10~-----8-------------8-----------|--------------------------------------|
B|--------------10-8-----10-------------|----------------------------8-10-11---|
G|--------------------------------------|--------------------------------------|
D|--------------------------------------|--------------------------------------|
A|--------------------------------------|--------------------------------------|
E|--------------------------------------|--------------------------------------|
                     -ou oo ooh!     oh     vic-    tory  is  in    You!


[Instrumental 3]

     F              Gm                     D#
e|--8h10~-----8-------------8-----------|--------------------------------------|
B|--------------10-8-----10-------------|----------------------------8-10-11---|
G|--------------------------------------|--------------------------------------|
D|--------------------------------------|--------------------------------------|
A|--------------------------------------|--------------------------------------|
E|--------------------------------------|--------------------------------------|
       whoa               whoa             oh      oh         oh       oh
         
     F              Gm                     D#
e|--8h10~-----8-------------8-----------|--------------------------------------|
B|--------------10-8-----10-------------|----------------------------8-10-11---|
G|--------------------------------------|-------------------------10-----------|
D|--------------------------------------|--------------------------------------|
A|--------------------------------------|--------------------------------------|
E|--------------------------------------|--------------------------------------|
       whoa               whoa             oh      oh         oh       oh

     F              Gm                     D#
e|--8h10~-----8-------------8-----------|--------------------------------------|
B|--------------10-8-----10-------------|----------------------------8-10-11---|
G|--------------------------------------|--------------------------------------|
D|--------------------------------------|--------------------------------------|
A|--------------------------------------|--------------------------------------|
E|--------------------------------------|--------------------------------------|
       whoa               whoa             oh      oh         oh       oh
         
     F              Gm                     D#
e|--8h10~-----8-------------8-----------|--------------------------------------|
B|--------------10-8-----10-------------|--------------------------------------|
G|--------------------------------------|--------------------------------------|
D|--------------------------------------|--------------------------------------|
A|--------------------------------------|--------------------------------------|
E|--------------------------------------|--------------------------------------|
       whoa               whoa             oh      oh         oh       oh


[Outro]

     F              Gm                     D#
e|--------1h3p1-------------------------|---1h3p1------------------------------|
B|----------------3p1------1h3p1--------|---------3p1-----1h3p1----------------|
G|---------------------------------3p0--|------------------------3p0h2h3-------|
D|--------------------------------------|--------------------------------------|x3
A|--------------------------------------|--------------------------------------|
E|--------------------------------------|--------------------------------------|

     F              Gm                     D#
e|--------1h3p1-------------------------|--------------------------------------|
B|----------------3p1------1h3p1--------|--------------------------------------|
G|---------------------------------3p0~-|--------------------------------------|
D|--------------------------------------|--------------------------------------|
A|--------------------------------------|--------------------------------------|
E|--------------------------------------|--------------------------------------|


[Order of the song]

Intro
Verse
Chorus 1
Instrumental 1
Verse
Chorus 1
Instrumental 2
Bridge
Chorus 2
Instrumental 3
Outro


************************************
| h   Hammer-on
| p   Pull-off
| ~   Vibrato
************************************

            
            
Suggest correction
Creating personal tab
Creating personal tab
You can edit any tab online and save it as your Personal.

You can edit, replace or remove any tab part or add personal notes – all changes will be seen only by you.

Personal tabs can be accessed anytime from any device, even offline.
Learn more »
Give kudos to tab author, rate the tab!
1 2 3 4 5
comments
print report bad tab
1 comment total.
0 reply
pivotmaker 34 Apr 26, 2016 11:12 PM

Thanks for the correction @mandelstamdavid :)

guest
You may want to rate the tab now too:
select rating
Wanna post a correction for this tab? Suggest correction