Oops, an error
Loading. Please wait.

All The Rage Back Home bass

version 1
version 1

Whole song

6,699 views 12 this week
2 commentsread comments
1 2 3 4 5
1 last vote to show rating
add to favorites
×
Save as Personal and add changes to this tab that will be seen only by you. Learn more ›
×
You can save this tab as Personal to edit and correct it or add notes. All changes will be seen only by you. Learn more »
launch autoscroll
font size
0
reset
guitar tuner
edit
Autoscroll
slow
fast
+/-
esc
set tempo
stop
Tuning: Drop D
BPM: 169

She said... (Main Riff, tremolo in 8th notes, follow chords)
G|-----------------------------------|
D|-----------------------------------|
A|-3---------------------------------|
D|---------2-------5-----------------|

I keep fallin'... (Other riff, tremolo in 8th notes, follow chords)
G|------------------------------------|
D|------------------------------------|
A|-3----------------------------------|
D|--------2------0--------------------|

            
            
Suggest correction
Creating personal tab
Creating personal tab
You can edit any tab online and save it as your Personal.

You can edit, replace or remove any tab part or add personal notes – all changes will be seen only by you.

Personal tabs can be accessed anytime from any device, even offline.
Learn more »
Give kudos to tab author, rate the tab!
1 2 3 4 5
comments
print report bad tab
2 comments total.
0 reply
caleb.blas 10 Jan 13, 2015 12:43 PM

Hi!
Do you by any chance have the complete bass tab for this song, I've been trying to do it myself, but I'm stuck :/

0 reply
1funnyguy99 127 Jan 19, 2015 04:29 PM

Hiya!
Unfortunately, I don't. This is just something I tabbed out in about 5 minutes. When the guitarist does a chromatic run thing from E to G, you could try octaves...

G|---------------------------------------------|
D|------------4-----5----6------5--------------|
A|-3-3...--------------------------------------|
D|---------2----3-----4------5----5-5...-------|

Like that. I dunno.

guest
You may want to rate the tab now too:
select rating
Wanna post a correction for this tab? Suggest correction