Oops, an error
Loading. Please wait.
We have an official Evil tab made by UG professional guitarists. Check out the tab »
×
2,213 views 1 this week
2 commentsread comments
1 2 3 4 5
x 3
add to favorites
×
Save as Personal and add changes to this tab that will be seen only by you. Learn more ›
×
You can save this tab as Personal to edit and correct it or add notes. All changes will be seen only by you. Learn more »
launch autoscroll
font size
0
reset
guitar tuner
backing track
0:00
0:00
edit
Autoscroll
slow
fast
+/-
esc
set tempo
stop
Author
Interpol
Evil

intro/verse:
G.--------------------------|---------------------------|
D.--------------------------|---------------------------|
A.-8--8-8--------------5-5--|-8--8-8------------4-4-5-5-|
E.--------6-6-6-5--5-5-----5|--------6-6-6-5--5---------|
           x3

repeat until the guitar comes in:

G.------------------------|
D.------------------------|
A.-8-8---------------5-5-5|
E.------6-6-6-6-5-5-------|

Pre-chorus:

G.------------------------------------------|
D.------------------------------------------|
A.-8------------5-5--8-8------------5-5-5-5-|
E.----6-6--5-5------------6-6--5-5----------|

Chorus:

G.-----------------------------------------------------------------|
D.-----------------------------------------------------------------|
A.-8-8-8-8-8-8-8-8-5-5-5-5-5-5-5-5---------------------------------|
E.---------------------------------6-6-6-6-6-6-6-6-5-5-5-5-5-5-5-5-|

G.---------------------------------|
D.---------------------------------|
A.-3-3-3-3-3-3-3-3-5-5-5-5-4-4-5-5-|
E.---------------------------------|


Thats it... tab by palos... elpalos_@hotmail.com

            
            
Suggest correction
Creating personal tab
Creating personal tab
You can edit any tab online and save it as your Personal.

You can edit, replace or remove any tab part or add personal notes – all changes will be seen only by you.

Personal tabs can be accessed anytime from any device, even offline.
Learn more »
Give kudos to tab author, rate the tab!
1 2 3 4 5
comments
print report bad tab
2 comments total.
0 reply
Interpolfan3000 31 Oct 15, 2006 02:12 PM

its all good except the first part there is no 4 in the beggining its just -5-5-5-5- not -4-4-5-5

0 reply
lunchboxturtle 30 Mar 02, 2008 03:11 PM

um, hello? how about some pre-chorus? sorry, dude. nice try at improv, i guess, but i think i speak for more than just me when i say we want the real deal - we can improv ourselves. ver. 6 is way better.

guest
You may want to rate the tab now too:
select rating
Wanna post a correction for this tab? Suggest correction