Oops, an error
Loading. Please wait.
We have an official Obstacle 1 tab made by UG professional guitarists. Check out the tab »
×
17,822 views 3 this week
3 commentsread comments
1 2 3 4 5
x 6
add to favorites
×
Save as Personal and add changes to this tab that will be seen only by you. Learn more ›
×
You can save this tab as Personal to edit and correct it or add notes. All changes will be seen only by you. Learn more »
launch autoscroll
font size
0
reset
how to read this tab
guitar tuner
backing track
0:00
0:00
edit
Autoscroll
slow
fast
+/-
esc
set tempo
stop
Author
This is my first tab, so please comment and rate. Hope you like it!

INTRO:

e|---------------------------------------------------------------|
B|---------------------------------------------------------------|
G|---------------------------------------------------------------|  X2
D|---10-10-10-10-10--7-7-7--7-7-7-7-7--10-10-10------------------|
A|---8--8--8--8--8---8-8-8--0-0-0-0-0--0--0--0-------------------|
E|---------------------------------------------------------------|

VERSE 1:

Guitar 1:
e|--------------------------------------------------|
B|--------------------------------------------------|
G|--------------------------------------------------|  X12
D|---10-10-10-10-10-10-10-10-10-10-10-10-10-10-10-10| 
A|---8--8--8--8--8--8--8--8--0--0--0--0--0--0--0--0-|
E|--------------------------------------------------|

Guitar 2:

e|---------8--8----8--8----8--8----8--8--------|
B|---------10-10---10-10---10-10---10-10-------|
G|---------------------------------------------| X6
D|---------------------------------------------|
A|---------------------------------------------|
E|---------------------------------------------|
                 ^^^
  on the fifth time he starts to sing

e|---------12-12----12-12----12-12----12-12----|
B|---------13-13----13-13----13-13----13-13----|
G|---------------------------------------------|  X2
D|---------------------------------------------|
A|---------------------------------------------|
E|---------------------------------------------|
    We can cap the old times...

e|---------8--8----8--8----8--8----8--8--------|
B|---------10-10---10-10---10-10---10-10-------|
G|---------------------------------------------| X2
D|---------------------------------------------|
A|---------------------------------------------|
E|---------------------------------------------|
    We can cap the old lines...

e|---------12-12----12-12----12-12----12-12----|
B|---------13-13----13-13----13-13----13-13----|
G|---------------------------------------------|  X2
D|---------------------------------------------|
A|---------------------------------------------|
E|---------------------------------------------|
   she can read....


PRE-CHORUS:

Guitar 2:

e|---------12-12----12-12----12-12----12-12------|
B|---------13-13----13-13----13-13----13-13------|
G|-----------------------------------------------|  X3
D|-----------------------------------------------|
A|-----------------------------------------------|
E|-----------------------------------------------|
                                      Oh she's...
        ...bad  

Guitar 1:
On the second time guitar 2 ^^^ is played...

e|---------8--8-----8--8-----8--8-----8--8-------|
B|---------10-10----10-10----10-10----10-10------|
G|-----------------------------------------------|
D|-----------------------------------------------|
A|-----------------------------------------------|
E|-----------------------------------------------|

e|-----------8-8------8-8------8-8------8-8------|
B|-----10-10----10-10----10-10----10-10----10----|
G|-----------------------------------------------|
D|-----------------------------------------------|
A|-----------------------------------------------|
E|-----------------------------------------------|


CHORUS:

Guitar 1:
e|--------------------------------------------------------------------------------------|
B|--------------------------------------------------------------------------------------|
G|--------------------------------------------------------------------------------------|
D|---10-10-10-10-10-10-10-10-10-10-10-10-9-9-9-9-7-7-7-7-7-7-7-7-10-10-10-10-10-10-10-10|
A|---8--8--8--8--8--8--8--8--8--8--8--8--7-7-7-7-0-0-0-0-0-0-0-0-0--0--0--0--0--0--0--0-|
E|--------------------------------------------------------------------------------------|
Its  different  now  that i'm.......              never see this place again.

e|--------------------------------------------------------------------------------------|
B|--------------------------------------------------------------------------------------|
G|--------------------------------------------------------------------------------------|
D|---10-10-------10-10-------10-10-------9-9-----7-7-7-7-7-7-7-7-10-10-10-10-10-10-10-10|
A|---8--8--------8--8--------8--8--------7-7-----0-0-0-0-0-0-0-0-0--0--0--0--0--0--0--0-|
E|--------------------------------------------------------------------------------------|
    stabbing            yourself   in       the neck

PRE-VERSE: 

Guitar 1:
e|---------------------------------------------------------------|
B|---------------------------------------------------------------|
G|---------------------------------------------------------------| X2
D|---10-10-10-10-10--7-7-7--7-7-7-7-7--10-10-10------------------|
A|---8--8--8--8--8---8-8-8--0-0-0-0-0--0--0--0-------------------|
E|---------------------------------------------------------------|

Guitar 2:

e|----------------------------------------------------------|(not sure if
B|----------------------------------------------------------| the 10,X,12
G|----------------------------------------------------------| is right, but
D|--------------------------12-12-12-12-12-12-12-12---------| it's the best 
A|--------------------------X--X--X--X--X--X--X--X----------| I could do)
E|--------------------------10-10-10-10-10-10-10-10---------|

e|----------------------------------------------------------|
B|----------------------------------------------------------|
G|----------------------------------------------------------|
D|---7-7-7-7-7-7-7-7-10-10-10-10-10-10-10-10----------------|
A|---8-8-8-8-8-8-8-8-12-12-12-12-12-12-12-12----------------|
E|----------------------------------------------------------|



VERSE 2:

Guitar 1:
e|--------------------------------------------------|
B|--------------------------------------------------|
G|--------------------------------------------------|  X6
D|---10-10-10-10-10-10-10-10-10-10-10-10-10-10-10-10| 
A|---8--8--8--8--8--8--8--8--0--0--0--0--0--0--0--0-|
E|--------------------------------------------------|

Guitar 2:


e|---------8--8----8--8----8--8----8--8--------|
B|---------10-10---10-10---10-10---10-10-------|
G|---------------------------------------------| X2
D|---------------------------------------------|
A|---------------------------------------------|
E|---------------------------------------------|
    We can find new ways of living.....
     Make playing....

e|---------12-12----12-12----12-12----12-12----|
B|---------13-13----13-13----13-13----13-13----|
G|---------------------------------------------|  X4
D|---------------------------------------------|
A|---------------------------------------------|
E|---------------------------------------------|
And we can top  the  old times    claim-making....
But she can read....

PRE-CHORUS:

Guitar 2:

e|---------12-12----12-12----12-12----12-12------|
B|---------13-13----13-13----13-13----13-13------|
G|-----------------------------------------------|  X3
D|-----------------------------------------------|
A|-----------------------------------------------|
E|-----------------------------------------------|
                                      Oh she's...
        ...bad  

Guitar 1:
On the second time guitar 2 ^^^ is played...

e|---------8--8-----8--8-----8--8-----8--8-------|
B|---------10-10----10-10----10-10----10-10------|
G|-----------------------------------------------|
D|-----------------------------------------------|
A|-----------------------------------------------|
E|-----------------------------------------------|

e|-----------8-8------8-8------8-8------8-8------|
B|-----10-10----10-10----10-10----10-10----10----|
G|-----------------------------------------------|
D|-----------------------------------------------|
A|-----------------------------------------------|
E|-----------------------------------------------|

CHORUS (X2):

Guitar 1:
e|--------------------------------------------------------------------------------------|
B|--------------------------------------------------------------------------------------|
G|--------------------------------------------------------------------------------------|
D|---10-10-10-10-10-10-10-10-10-10-10-10-9-9-9-9-7-7-7-7-7-7-7-7-10-10-10-10-10-10-10-10|
A|---8--8--8--8--8--8--8--8--8--8--8--8--7-7-7-7-0-0-0-0-0-0-0-0-0--0--0--0--0--0--0--0-|
E|--------------------------------------------------------------------------------------|
Its  different  now  that i'm.......              never see this place again.

e|--------------------------------------------------------------------------------------|
B|--------------------------------------------------------------------------------------|
G|--------------------------------------------------------------------------------------|
D|---10-10-------10-10-------10-10-------9-9-----7-7-7-7-7-7-7-7-10-10-10-10-10-10-10-10|
A|---8--8--------8--8--------8--8--------7-7-----0-0-0-0-0-0-0-0-0--0--0--0--0--0--0--0-|
E|--------------------------------------------------------------------------------------|
    stabbing            yourself   in       the neck

BRIDGE:

Guitar 2:

e|--------8----12-------8----12--------8----8----|
B|-----10---10-------10---10--------10---10---10-|
G|-----------------------------------------------| Carries on through to
D|-----------------------------------------------| the end of the song
A|-----------------------------------------------|
E|-----------------------------------------------|
    it's in the way that she poses...

OUTRO:

Guitar 1:

e|--------------------------------------------------|
B|--------------------------------------------------|
G|--------------------------------------------------| Carries on through to
D|--------------7-7-7-10-10-12-12-12-12-12-12-12-12-| the end of the song
A|-----10-10-10-------------------------------------|
E|--------------------------------------------------|
                                        She packs a-
      way...
                                        It's in the
      way...

THE END!

            
            
Suggest correction
Creating personal tab
Creating personal tab
You can edit any tab online and save it as your Personal.

You can edit, replace or remove any tab part or add personal notes – all changes will be seen only by you.

Personal tabs can be accessed anytime from any device, even offline.
Learn more »
comments
print report bad tab
3 comments total.
0 reply
BrianMS 10 Jul 31, 2009 10:17 AM

It's actually a pretty good tab. The only thing missing are the two octaves before you get to the 12x14 on the A and G string. Play 5x7 and the 8x10 and then 12x14 all on those strings.

0 reply
oasismad94 71 Sep 03, 2009 05:24 AM

great tab

0 reply
jackass94 10 Dec 15, 2009 10:36 AM

very nice, i love playing it

guest
You may want to rate the tab now too:
select rating
Wanna post a correction for this tab? Suggest correction