Oops, an error
Loading. Please wait.
We have an official Obstacle 1 tab made by UG professional guitarists. Check out the tab »
×
224,723 views 207 this week
16 commentsread comments
1 2 3 4 5
x 57
add to favorites
×
Save as Personal and add changes to this tab that will be seen only by you. Learn more ›
×
You can save this tab as Personal to edit and correct it or add notes. All changes will be seen only by you. Learn more »
launch autoscroll
font size
0
reset
how to read this tab
guitar tuner
backing track
0:00
0:00
edit
Autoscroll
slow
fast
+/-
esc
set tempo
stop
Author
e|---------------------------------------------------------|
B|---------------------------------------------------------|
G|---------------------------------------------------------|
D|-10--10--10--10--10--7--7--7--7--7--7--7--7--10--10--10--|
A|-8---8---8---8---8---8--8--8--0--0--0--0--0--0---0---0---|
E|---------------------------------------------------------|  1X1


[Guitar 1]

e|-----------------------------------------------------------------|
B|-----------------------------------------------------------------|
G|-----------------------------------------------------------------|
D|-10--10--10--10--10--10--10--10--10--10--10--10--10--10--10--10--|
A|-8---8---8---8---8---8---8---8---0---0---0---0---0---0---0---0---|
E|-----------------------------------------------------------------|


[Guitar 2]

e|-8---8-----------8---8-----------8---8-----------8---8---|
B|-10--10----------10--10----------10--10----------10--10--|
G|---------------------------------------------------------|
D|---------------------------------------------------------|
A|---------------------------------------------------------|
E|---------------------------------------------------------|


[Guitar 1]

e|----------------------------------------------------|
B|----------------------------------------------------|
G|----------------------------------------------------|
D|-9--9--9--9--9--9--9--9--9--9--9--9--9--10--10--10--|
A|-8--8--8--8--8--8--8--8--0--0--0--0--0--0---0---0---|
E|----------------------------------------------------|


[Guitar 2]

e|-8---8-----------8---8-----------8---8-----------8---8---|
B|-10--10----------10--10----------10--10----------10--10--|
G|---------------------------------------------------------|
D|---------------------------------------------------------|
A|---------------------------------------------------------|
E|---------------------------------------------------------|


[Guitar 1]

e|----------------------------------------------------|
B|----------------------------------------------------|
G|----------------------------------------------------|
D|-7--7--7--7--7--7--7--7--7--7--7--7--7--10--10--10--|
A|-8--8--8--8--8--8--8--8--0--0--0--0--0--0---0---0---|
E|----------------------------------------------------|


[Guitar 2]

e|-8---8-----------8---8-----------8---8-----------8---8---|
B|-10--10----------10--10----------10--10----------10--10--|
G|---------------------------------------------------------|
D|---------------------------------------------------------|
A|---------------------------------------------------------|
E|---------------------------------------------------------|  2X1


[Verse]

[Guitar 1]

e|-----------------------------------------------------------------|
B|-----------------------------------------------------------------|
G|-----------------------------------------------------------------|
D|-10--10--10--10--10--10--10--10--10--10--10--10--10--10--10--10--|
A|-8---8---8---8---8---8---8---8---0---0---0---0---0---0---0---0---|
E|-----------------------------------------------------------------|


[Guitar 2]

e|-8---8-----------8---8-----------8---8-----------8---8---|
B|-10--10----------10--10----------10--10----------10--10--|
G|---------------------------------------------------------|
D|---------------------------------------------------------|
A|---------------------------------------------------------|
E|---------------------------------------------------------|  2X1


[Guitar 1]

e|----------------------------------------------------|
B|----------------------------------------------------|
G|----------------------------------------------------|
D|-7--7--7--7--7--7--7--7--7--7--7--7--7--10--10--10--|
A|-8--8--8--8--8--8--8--8--0--0--0--0--0--0---0---0---|
E|----------------------------------------------------|


[Guitar 2]

e|-12--12----------12--12----------12--12----------12--12--|
B|-13--13----------13--13----------13--13----------13--13--|
G|---------------------------------------------------------|
D|---------------------------------------------------------|
A|---------------------------------------------------------|
E|---------------------------------------------------------|  2X1


[Guitar 1]

e|-----------------------------------------------------------------|
B|-----------------------------------------------------------------|
G|-----------------------------------------------------------------|
D|-10--10--10--10--10--10--10--10--10--10--10--10--10--10--10--10--|
A|-8---8---8---8---8---8---8---8---0---0---0---0---0---0---0---0---|
E|-----------------------------------------------------------------|


[Guitar 2]

e|-8---8-----------8---8-----------8---8-----------8---8---|
B|-10--10----------10--10----------10--10----------10--10--|
G|---------------------------------------------------------|
D|---------------------------------------------------------|
A|---------------------------------------------------------|
E|---------------------------------------------------------|


[Guitar 1]

e|----------------------------------------------------|
B|----------------------------------------------------|
G|----------------------------------------------------|
D|-9--9--9--9--9--9--9--9--9--9--9--9--9--10--10--10--|
A|-8--8--8--8--8--8--8--8--0--0--0--0--0--0---0---0---|
E|----------------------------------------------------|


[Guitar 2]

e|-8---8-----------8---8-----------8---8-----------8---8---|
B|-10--10----------10--10----------10--10----------10--10--|
G|---------------------------------------------------------|
D|---------------------------------------------------------|
A|---------------------------------------------------------|
E|---------------------------------------------------------|


[Guitar 1]

e|----------------------------------------------------|
B|----------------------------------------------------|
G|----------------------------------------------------|
D|-7--7--7--7--7--7--7--7--7--7--7--7--7--10--10--10--|
A|-8--8--8--8--8--8--8--8--0--0--0--0--0--0---0---0---|
E|----------------------------------------------------|


[Guitar 2]

e|-12--12----------12--12----------12--12----------12--12--|
B|-13--13----------13--13----------13--13----------13--13--|
G|---------------------------------------------------------|
D|---------------------------------------------------------|
A|---------------------------------------------------------|
E|---------------------------------------------------------|  2X1


[Guitar 1]

e|----------|
B|----------|
G|----------|
D|-7--7-----|
A|-8--8--%--|
E|----------|


[Guitar 2]

e|-12--12----------12--12----------12--12----------12--12--|
B|-13--13----------13--13----------13--13----------13--13--|
G|---------------------------------------------------------|
D|---------------------------------------------------------|
A|---------------------------------------------------------|
E|---------------------------------------------------------|


[Interlude]

[Guitar 1]

e|-12--12----------12--12----------12--12----------12--12--|
B|-13--13----------13--13----------13--13----------13--13--|
G|---------------------------------------------------------|
D|---------------------------------------------------------|
A|---------------------------------------------------------|
E|---------------------------------------------------------|


[Guitar 2]

e|-8---8-----------8---8-----------8---8-----------8---8---8---8---|
B|-10--10----------10--10----------10--10----------10--10--10--10--|
G|-----------------------------------------------------------------|
D|-----------------------------------------------------------------|
A|-----------------------------------------------------------------|
E|-----------------------------------------------------------------|


[Guitar 1]

e|-12--12----------12--12----------12--12----------12--12--|
B|-13--13----------13--13----------13--13----------13--13--|
G|---------------------------------------------------------|
D|---------------------------------------------------------|
A|---------------------------------------------------------|
E|---------------------------------------------------------|


[Guitar 2]

e|---------8---8-----------8---8-----------8---8-----------|
B|---------10--10----------10--10----------10--10----------|
G|---------------------------------------------------------|
D|---------------------------------------------------------|
A|---------------------------------------------------------|
E|---------------------------------------------------------|


[Chorus]

e|-------------------------------------------------------------|
B|-------------------------------------------------------------|
G|-------------------------------------------------------------|
D|-10--10--10--10--10--10--10--10--10--10--10--10--9--9--9--9--|
A|-8---8---8---8---8---8---8---8---8---8---8---8---7--7--7--7--|
E|-------------------------------------------------------------|

e|-------------------------------------------------|
B|-------------------------------------------------|
G|-------------------------------------------------|
D|-7--7--7--7--7--7--7--7--9--9--9--9--9--9--9--9--|
A|-0--0--0--0--0--0--0--0--7--7--7--7--7--7--7--7--|
E|-------------------------------------------------|

e|-------------------------------------------|
B|-------------------------------------------|
G|-9---9------9---9------9---9------9--9-----|
D|-10--10-----10--10-----10--10-----9--9-----|
A|-8---8---%--8---8---%--8---8---%--7--7--%--|
E|-------------------------------------------|

e|-------------------------------------------------|
B|-------------------------------------------------|
G|-9--9--9--9--9--9--9--9--9--9--9--9--9--9--9--9--|
D|-7--7--7--7--7--7--7--7--9--9--9--9--9--9--9--9--|
A|-0--0--0--0--0--0--0--0--7--7--7--7--7--7--7--7--|
E|-------------------------------------------------|


[Verse 2]

[Guitar 1]

e|---------------------------------------------------------|
B|---------------------------------------------------------|
G|---------------------------------------------------------|
D|-10--10--10--10--10--7--7--7--7--7--7--7--7--10--10--10--|
A|-8---8---8---8---8---8--8--8--0--0--0--0--0--0---0---0---|
E|---------------------------------------------------------|


[Guitar 2]

e|---------------------------------------------------------|
B|---------------------------------------------------------|
G|------------------------------7--7--7--7--7--7--7-7-7-7--|
D|------------------------------x--x--x--x--x--x--x-x-x-x--|
A|------------------------------5--5--5--5--5--5--5-5-5-5--|
E|---------------------------------------------------------|


[Guitar 1]

e|---------------------------------------------------------|
B|---------------------------------------------------------|
G|---------------------------------------------------------|
D|-10--10--10--10--10--7--7--7--7--7--7--7--7--10--10--10--|
A|-8---8---8---8---8---8--8--8--0--0--0--0--0--0---0---0---|
E|---------------------------------------------------------|


[Guitar 2]

e|---------------------------------------------------------------------|
B|---------------------------------------------------------------------|
G|-10--10--10--10--10--10--10-10-10-10-14--14--14--14--14--14--14--14--|
D|-x---x---x---x---x---x---x--x--x--x--x---x---x---x---x---x---x---x---|
A|-8---8---8---8---8---8---8--8--8--8--12--12--12--12--12--12--12--12--|
E|---------------------------------------------------------------------|


[Guitar 1]

e|-----------------------------------------------------------------|
B|-----------------------------------------------------------------|
G|-----------------------------------------------------------------|
D|-10--10--10--10--10--10--10--10--10--10--10--10--10--10--10--10--|
A|-8---8---8---8---8---8---8---8---0---0---0---0---0---0---0---0---|
E|-----------------------------------------------------------------|


[Guitar 2]

e|-8---8-----------8---8-----------8---8-----------8---8---|
B|-10--10----------10--10----------10--10----------10--10--|
G|---------------------------------------------------------|
D|---------------------------------------------------------|
A|---------------------------------------------------------|
E|---------------------------------------------------------|


[Guitar 1]

e|------------------------------------------------------------|
B|------------------------------------------------------------|
G|------------------------------------------------------------|
D|-10--10--10--10--10--10--10--10--7--7--7--7--7--10--10--10--|
A|-8---8---8---8---8---8---8---8---0--0--0--0--0--0---0---0---|
E|------------------------------------------------------------|


[Guitar 2]

e|-8---8-----------8---8-----------8---8-----------8---8---|
B|-10--10----------10--10----------10--10----------10--10--|
G|---------------------------------------------------------|
D|---------------------------------------------------------|
A|---------------------------------------------------------|
E|---------------------------------------------------------|


[Guitar 1]

e|----------------------------------------------------|
B|----------------------------------------------------|
G|----------------------------------------------------|
D|-7--7--7--7--7--7--7--7--7--7--7--7--7--10--10--10--|
A|-8--8--8--8--8--8--8--8--0--0--0--0--0--0---0---0---|
E|----------------------------------------------------|


[Guitar 2]

e|-12--12----------12--12----------12--12----------12--12--|
B|-13--13----------13--13----------13--13----------13--13--|
G|---------------------------------------------------------|
D|---------------------------------------------------------|
A|---------------------------------------------------------|
E|---------------------------------------------------------|  2X3


[Guitar 1]

e|----------|
B|----------|
G|----------|
D|-7--7-----|
A|-8--8--%--|
E|----------|


[Guitar 2]

e|-12--12----------12--12----------12--12----------12--12--|
B|-13--13----------13--13----------13--13----------13--13--|
G|---------------------------------------------------------|
D|---------------------------------------------------------|
A|---------------------------------------------------------|
E|---------------------------------------------------------|


e|----------0--------------0--------------------|
B|----1--------------1--------------1-----1-----|
G|-2-----2--------2-----2--------2-----2-----2--|
D|----------------------------------------------|
A|----------------------------------------------|
E|----------------------------------------------|  1X9


[Guitar 1]

e|----------0--------------0--------------------|
B|----1--------------1--------------1-----1-----|
G|-2-----2--------2-----2--------2-----2-----2--|
D|----------------------------------------------|
A|----------------------------------------------|
E|----------------------------------------------|


[Guitar 2]

e|-------------------------------------------------|
B|-------------------------------------------------|
G|-------------------5--5--7--7--7--7--7--7--7--7--|
D|-5--5--5--7--7--7--------------------------------|
A|-------------------------------------------------|
E|-------------------------------------------------|  2X11


[Guitar 1]

e|----------0--------------0-----------------------|
B|----1--------------1--------------1-----1--------|
G|-2-----2--------2-----2--------2-----2-----2-----|
D|----------------------------------------------%--|
A|-------------------------------------------------|
E|-------------------------------------------------|


[Guitar 2]

e|----------------------------------------------------|
B|----------------------------------------------------|
G|-------------------5--5--7--7--7--7--7--7--7--7-----|
D|-5--5--5--7--7--7-----------------------------------|
A|----------------------------------------------------|
E|-------------------------------------------------%--|


  "but it's different now"
e|-------------------------------------------------------|
B|-------------------------------------------------------|
G|--10-10-10-10-10-10-10-10-10-10-10-10-9----9--9--9-----|
D|--10-10-10-10-10-10-10-10-10-10-10-10-10-0-10-10-10----|
A|--8--8--8--8--8--8--8--8--8--8--8--8--7----7--7--7-----|
E|-------------------------------------------------------|


e|-------------------------------------------------------|
B|-------------------------------------------------------|
G|--9--9--9--9--9--9--9--9--9--9--9--9--9----9--9--9-----|
D|--10-10-10-10-10-10-10-10-10-10-10-10-10-0-10-10-10----|
A|--0--0--0--0--0--0--0--0--10-10-10-10-10-0-10-10-10----|
E|--------------------------8--8--8--8--8----8--8--8-----|


e|----------------------------------------------------|
B|----------------------------------------------------|
G|--9--9----------9--9--------------------------------|
D|--10-10---*3----10-10-------------------------------|
A|--8--8----------7--7--------------------------------|
E|----------------------------------------------------|

e|-------------------------------------------------------|
B|-------------------------------------------------------|
G|--9--9--9--9--9--9--9--9--9--9--9--9--9----9--9--9-----|
D|--10-10-10-10-10-10-10-10-10-10-10-10-10-0-10-10-10----|
A|--0--0--0--0--0--0--0--0--10-10-10-10-10-0-10-10-10----|
E|--------------------------8--8--8--8--8----8--8--8-----|


[Outro]

e|--------12---------12--------------------------------|
B|----13---------13--------13--13----------------------|
G|--14--14-----14--14----14--14--14--------------------|
D|-----------------------------------------------------|
A|-----------------------------------------------------|
E|-----------------------------------------------------|



************************************

| x  Dead note 

************************************

            
            
Suggest correction
Creating personal tab
Creating personal tab
You can edit any tab online and save it as your Personal.

You can edit, replace or remove any tab part or add personal notes – all changes will be seen only by you.

Personal tabs can be accessed anytime from any device, even offline.
Learn more »
comments
print report bad tab
16 comments total. Showing first comments.
+3 reply
AmazinTraptpunk 10 Sep 09, 2003 08:00 PM

this is good but you forgot a part for guitar 1 right after he says "oh she's bad" play this

E-----------------------------------------------------------
a-----------------------------------------------------------
d-----------------------------------------------------------
g-----------------------------------------------------------
b-10-10-10-10-10-10-10-10-10-10-10-10-10-10-10-10-----------
e-----------------------------------------------------------
but you did tab it hella good so dont feel bad that you missed this part

0 reply
Blankapeeto 65 Feb 28, 2004 07:00 PM

Exactly as what he sed^

0 reply
TomSk 327 Apr 06, 2004 08:00 PM

Im, not sure when to play certain bits, could you send me it with some lyrics next to the parts perhaps? and any improvements you've mad to be included too, thanks!!

guest
You may want to rate the tab now too:
select rating
Wanna post a correction for this tab? Suggest correction