Oops, an error
Loading. Please wait.
We have an official Pda tab made by UG professional guitarists. Check out the tab »
×

Pda bass

version 3
version 3

Whole song

  • Added time notation, note corrections throughout, ... Show more

Interactive

64 views 1 this week
no commentswrite comment
1 2 3 4 5
3 more votes to show rating
add to favorites
×
Save as Personal and add changes to this tab that will be seen only by you. Learn more ›
×
You can save this tab as Personal to edit and correct it or add notes. All changes will be seen only by you. Learn more »
launch autoscroll
font size
0
reset
guitar tuner
backing track
0:00
0:00
edit
Autoscroll
slow
fast
+/-
esc
set tempo
stop
About this tab version
Added time notation, note corrections throughout, especially in the choruses and outro. Was this info helpful? Yes No
This was made using the isolated bass track that can be extracted from the rock band game (you can also find
it on youtube). It seems all other tabs have gotten both the chorus and outro slightly wrong; During the
chorus, Carlos plays some open strings, and during the final variation of the outro, he plays the fifth of
the E. Other changes include mostly minor details and corrections. This should be 100% right (and includes
every detail of the song), but if you find a mistake go ahead and PM me.


[Verse 1]
   E  E  E  E  E  E  E  E   E  E  E  E  E  E  E  E   E  E  E  E  E  E  E  E   E  E  E  E  E  E  E  E
G|------------------------|------------------------|------------------------|------------------------|
D|------------------------|------------------------|------------------------|------------------------|
A|-2--2--2--2--2--2--2--2-|-2--2--2--2--5--5--5--0-|-2--2--2--2--2--2--2--2-|-2--2--2--2--4--4--5--5-|
D|------------------------|------------------------|------------------------|------------------------|

   E  E  E  E  E  E  E  E   E  E  E  E  E  E  E  E   E  E  E  E  E  E  E  E   E  E  E  E  E  E  E  E
G|------------------------|------------------------|------------------------|------------------------|
D|------------------------|------------------------|------------------------|------------------------|
A|----------------------5-|-5--5--5--5--5--5--5--5-|----------------------5-|-5--5--5--5--5--5--5--0-|
D|-5--5--5--5--5--5--5----|------------------------|-5--5--5--5--5--5--5----|------------------------|

   E  E  E  E  E  E  E  E   E  E  E  E  E  E  E  E   E  E  E  E  E  E  E  E   E  E  E  E  E  E  E  E
G|------------------------|------------------------|------------------------|------------------------|
D|------------------------|------------------------|------------------------|------------------------|
A|-2--2--2--2--2--2--2--2-|-2--2--2--2--2--5--5--0-|-2--2--2--2--2--2--2--2-|-2--2--2--2--4--4--5--5-|
D|------------------------|------------------------|------------------------|------------------------|

   E  E  E  E  E  E  E  E   E  E  E  E  E  E  E  E   E  E  E  E  E  E  E  E   E  E  E  E  E  E  E  E
G|------------------------|------------------------|------------------------|-------------------6----|
D|------------------------|------------------------|------------------------|------------------------|
A|-5--------------------5-|-5--5--5--5--5--5--5--5-|----------------------5-|-5--5--5--5--5--4-----4-|
D|----5--5--5--5--5--5----|------------------------|-5--5--5--5--5--5--5----|------------------------|


[Pre-Chorus]
   E  E  E  E  E  E  E  E   E  E  E  E  E  E  E  E   E  E  E  E  E  E  E  E   E  E  E  E  E  E  E  E
G|------------------------|------------------------|------------------------|------------------------|
D|------------------------|----------------4--4--4-|-4--0--0--0--0--0--0--0-|-0--0--0--0--0--4--4--4-|
A|-2--2-----0--2--2-----0-|-2--2--2--2-------------|------------------------|------------------------|
D|------------------------|------------------------|------------------------|------------------------|

   E  E  E  E  E  E  E  Q   E  E  E  E  E  E  E  E   E  E  E  E  E  E  E  Q   E  E  E  E  E  E  E  E
G|------------------------|------------------------|------------------------|-------------------6----|
D|-4--4--4--5--5----------|------------------------|------------------------|------------------------|
A|----------------------5-|----5--5--5--5--5--5--5-|------------------------|----5--5--5--5--4-----4-|
D|----------------5--5----|------------------------|-5--5--5--5--5--7--5--7-|------------------------|

   E  E  E  E  E  E  E  E   E  E  E  E  E  E  E  E   E  E  E  E  E  E  E  E   E  E  E  E  E  E  E  E
G|------------------------|------------------------|------------------------|------------------------|
D|------------------------|----------------4--4--4-|-4--0--0--0--0--0--0--0-|-0--0--0--0--0--4--4--4-|
A|-2--2-----0--2--2-----0-|-2--2--2--2-------------|------------------------|------------------------|
D|------------------------|------------------------|------------------------|------------------------|

   E  E  E  E  E  E  E  Q   E  E  E  E  E  E  E  E   E  E  E  E  E  E  E  Q   E  E  E  E  E  E  E  E
G|------------------------|------------------------|------------------------|-------------------8----|
D|-4--4--4--5--5----------|------------------------|------------------------|------------------------|
A|----------------------5-|----5--5--5--5--5--5--5-|------------------------|----5--5--5-----6-----6-|
D|----------------5--5----|------------------------|-5--5--5--5--5--7--5--7-|------------------------|


[Chorus One]
   E  E  E  E  E  E  E  E   E  E  E  E  E  E  E  E   E  E  E  E  E  E  E  Q   E  E  E  E  E  E  E  E
G|------------------------|------------------------|------------------------|------------------------|
D|------------------------|------------------------|----0--0-12-12-12-12-11-|---11-11-11-11----------|
A|-7--7--7--7--7--9--7--7-|-7--7--7--7--9--9--7--7-|-0----------------------|---------------12-12-12-|
D|------------------------|------------------------|------------------------|------------------------|

    E  E  E  E  E  E  E  E   E  E  E  E  E  E  E  E   E  E  E  E  E  E  E  Q   E  E  E  E  E  E  S  S  E
G|-------------------------|------------------------|------------------------|---------------------------|
D|-------------------------|------------------------|----0--0-12-12-12-12-11-|---11-11-11-11-------------|
A|-12--7--7--7--7--9--7--7-|-7--7--7--7--9--9--7--7-|-0----------------------|---------------12-12-12-12-|
D|-------------------------|------------------------|------------------------|---------------------------|

    E  E  E  E  E  E  E  E   E  E  E  E  E  E  E  E   E  E  E  E  E  E  E  Q   E  E  E  E  E  E  E  E
G|-------------------------|------------------------|-------------------------|-------------------------|
D|-------------------------|------------------------|----11-11-11-11-12-11-12-|----11-11-11-11----------|
A|-12--7--7--7--7-/9--9--9-|-9/11-11-11-11/12-12-12-|-12----------------------|----------------12-12-12-|
D|-------------------------|------------------------|-------------------------|-------------------------|


[Post-Chorus]
    E  E  E  E  E  E  E  E   E  E  E  E  E  E  E  E   E  E  E  Q     E  E  E   E  E  E  E  E  E  E  E
G|-----------------9--9--9-|-9----------------------|------------------------|------------------------|
D|-------------------------|------------------------|------------------------|------------------------|
A|-12--7--7--7--7----------|----7--7--7--7--7--7--\-|-2--2--2--2-----2--2--2-|/6--6--6--6--6--6--6--6-|
D|-------------------------|------------------------|------------------------|------------------------|

   E  E  E  E  E  E  E  E   E  E  E  E  E  E  E  E   E  E  E  E  E  E  E  E    E  E  E  E  E  E  E  E
G|------------------------|------------------------|------------------------|-------------------------|
D|------------------------|------------------------|------------------------|-------------------------|
A|-6--6--6--6--6--7--7----|------------------------|------------------------|-------------------------|
D|----------------------0-|-0--2--2--2--2--2--2--/-|-9--9--9--9--9--9--9--/-|-13-13-13-13-13-13-13-13-|

    E  H..                  W
G|------------------------|------------------------|
D|------------------------|------------------------|
A|------------------------|------------------------|
D|-13---------------------|------------------------|


[Verse 2]
   Q     Q     E  E  E  E   E  E  E  E  E  E  E  E   E  E  E  E  E  E  E  E   E  E  E  E  E  E  E  E
G|------------------------|------------------------|------------------------|------------------------|
D|------------------------|------------------------|------------------------|------------------------|
A|-2-----2-----2--2--2--2-|-2--2--2--2--/--5--5--0-|-2--2--2--2--2--2--2--2-|-2--2--2--2--4--4--5--5-|
D|------------------------|------------------------|------------------------|------------------------|

   E  E  E  E  E  E  E  E   E  E  E  E  E  E  E  E   E  E  E  E  E  E  E  Q   E  E  E  E  E  E  E  E
G|------------------------|------------------------|------------------------|------------------------|
D|------------------------|------------------------|------------------------|------------------------|
A|-5--------------------5-|----5--5--5--5--5--5--5-|----------------------5-|----5--5--5--5--5--5--0-|
D|----5--5--5--5--5--5----|------------------------|-5--5--5--5--5--5--5----|------------------------|

   E  E  E  E  E  E  E  E   E  E  E  E  E  E  E  E   E  E  E  E  E  E  E  E   E  E  E  E  E  E  E  E
G|------------------------|------------------------|------------------------|------------------------|
D|------------------------|------------------------|------------------------|------------------------|
A|-2--2--2--2--2--2--2--2-|-2--2--2--2-/5--5--5--0-|-2--2--2--2--2--2--2--2-|-2--2--2--2--4--4--5--5-|
D|------------------------|------------------------|------------------------|------------------------|

   E  E  E  E  E  E  E  Q      E  E  E  E  E  E  E   E  E  E  E  E  E  E  E   E  E  E  E  E  E  E  E
G|------------------------|------------------------|------------------------|-------------------6----|
D|------------------------|------------------------|------------------------|------------------------|
A|----------------------5-|----5--5--5--5--5--5--5-|----------------------5-|-5--5--5--5--5--4-----4-|
D|-5--5--5--5--5--5--5----|------------------------|-5--5--5--5--5--5--5----|------------------------|


[Pre-Chorus 2]
   E  E  E  E  E  E  E  E   E  E  E  E  E  E  E  E   E  E  E  E  E  E  E  E   E  E  E  E  E  E  E  E
G|------------------------|------------------------|------------------------|------------------------|
D|------------------------|----------------4--4--4-|-4--0--0--0--0--0--0--0-|-0--0--0--0--0--4--4--4-|
A|-2--2-----0--2--2-----0-|-2--2--2--2-------------|------------------------|------------------------|
D|------------------------|------------------------|------------------------|------------------------|

   E  E  E  E  E  E  E  Q   E  E  E  E  E  E  E  E   E  E  E  E  E  E  E  Q   E  E  E  E  E  E  E  E
G|------------------------|------------------------|------------------------|-------------------6----|
D|-4--4--4--5--5----------|------------------------|------------------------|------------------------|
A|----------------------5-|----5--5--5--5--5--5--5-|------------------------|----5--5--5-----4-----4-|
D|----------------5--5----|------------------------|-5--5--5--5--5--7--5--7-|------------------------|

   E  E  E  E  E  E  E  E   E  E  E  E  E  E  E  E   E  E  E  E  E  E  E  E   E  E  E  E  E  E  E  E
G|------------------------|------------------------|------------------------|------------------------|
D|------------------------|----------------4--4--4-|-4--0--0--0--0--0--0--0-|-0--0--0--0--0--4--4--4-|
A|-2--2-----0--2--2-----0-|-2--2--2--2-------------|------------------------|------------------------|
D|------------------------|------------------------|------------------------|------------------------|

   E  E  E  E  E  E  E  Q   E  E  E  E  E  E  E  E   E  E  E  E  E  E  E  Q   E  E  E  E  E  E  E  E
G|------------------------|------------------------|------------------------|-------------------8----|
D|-4--4--4--5--5----------|------------------------|------------------------|------------------------|
A|----------------------5-|----5--5--5--5--5--5--5-|------------------------|----5--5--5-----6-----6-|
D|----------------5--5----|------------------------|-5--5--5--5--5--7--5--7-|------------------------|


[Chorus 2]
   E  E  E  E  E  E  E  E   E  E  E  E  E  E  E  E   E  E  E  E  E  E  E  Q    E  E  E  E  E  E  E  E
G|------------------------|------------------------|------------------------|-------------------------|
D|------------------------|------------------------|----0--0-12-12-12-12-11-|-11-11-11-11-11----------|
A|-7--7--7--7--7--9--7--7-|----7--7--7--9--9--7--7-|-0----------------------|----------------12-12-12-|
D|------------------------|------------------------|------------------------|-------------------------|

    E  E  E  E  E  E  E  E   E  E  E  E  E  E  E  E   E  E  E  E  E  E  E  Q    E  E  E  E  E  E  E  E
G|-------------------------|------------------------|------------------------|-------------------------|
D|-------------------------|------------------------|----0--0-12-12-12-12-11-|-11-11-11-11-11----------|
A|-12--7--7--7--7--9--7--7-|-7--7--7--7--9--9--7--7-|-0----------------------|-- -------------12-12-12-|
D|-------------------------|------------------------|------------------------|--- ---------------------|

    E  E  E  E  E  E  E  E   E  E  E  E  E  E  E  E   E  E  E  E  E  E  E  Q   E  E  E  E  E  E  E  E
G|-------------------------|------------------------|-------------------------|-------------------------|
D|-------------------------|------------------------|----11-11-11-11-12-11-12-|----11-11-11-11----------|
A|-12--7--7--7--7-/9--9--9-|-9/11-11-11-11/12-12-12-|-12----------------------|----------------12-12-12-|
D|-------------------------|------------------------|-------------------------|-------------------------|


[Post-Chorus 2]
    E  E  E  E  E  E  E  E   E  E  E  E  E  E  E  E   E  E  E  E  E  E  E  E   E  E  E  E  E  E  E  E
G|-----------------9--9--9-|-9----------------------|------------------------|------------------------|
D|-------------------------|------------------------|------------------------|------------------------|
A|-12--7--7--7--7----------|----7--7--7--7--7--7--7-|-2--2--2--2--2--2--2--2-|/6--6--6--6--6--6--6--6-|
D|-------------------------|------------------------|------------------------|------------------------|

   E  E  E  E  E  E  E  E   E  E  E  E  E  E  E  E   E  E  E  E  E  E  E  E    E  E  E  E  E  E  E  E
G|------------------------|------------------------|------------------------|-------------------------|
D|------------------------|------------------------|------------------------|-------------------------|
A|-6--6--6--6--6--7--7----|------------------------|------------------------|-------------------------|
D|----------------------0-|-0--2--2--2--2--2--2--2-|-9--9--9--9--9--9--9--/-|-13-13-13-13-13-13-13-13-|

    E  H..
G|------------------------|
D|------------------------|
A|------------------------|
D|-13---------------------|


[Bridge/bass solo]
This part is a little confusing to look at, so it's really important to listen to the song very closely here
to make sure you're playing it right

    W     W     W     W     W     E  E  E  Q    E  E  Q      E  E  Q    E  E  E    E  E  E  E  E  E  E  E
G|-----|-----|-----|-----|-----|-16-16-16-16---16-16-16-|---16-16-16---16-16-16-|-16-16-16-16-14-14-14-14-|
D|-----|-----|-----|-----|-----|------------------------|-----------------------|-------------------------|
A|-----|-----|-----|-----|-----|------------------------|-----------------------|-------------------------|
D|-----|-----|-----|-----|-----|------------------------|-----------------------|-------------------------|

    E  E  E  E  E  E  E  E    E  E  E  Q    E  E  Q      E  E  Q    E  E  E    E  E  E  E  E  E  E  E
G|-14-14-14-14-13-13-13-13-|-13-13-13-13---13-13-13-|---13-13-13---13-13-13-|-13-13-13-13-14-14-14-14-|
A|-------------------------|------------------------|-----------------------|-------------------------|
A|-------------------------|------------------------|-----------------------|-------------------------|
D|-------------------------|------------------------|-----------------------|-------------------------|

    E  E  E  E  E  E  E  E    E  E  E  Q    E  E  Q      E  E  Q    E  E  E    E  E  E  E  E  E  E  E
G|-14-14-14-16-16-16-16-16-|-16-16-16-16---16-16-16-|---16-16-16---16-16-16-|-16-16-16-16-14-14-14-14-|
D|-------------------------|------------------------|-----------------------|-------------------------|
A|-------------------------|------------------------|-----------------------|-------------------------|
D|-------------------------|------------------------|-----------------------|-------------------------|

    E  E  E  E  E  E  E  E  E   E  E  Q     E  E  E  E   E  E  Q     E  E  E   E  E  E  Q    E  E  E
G|-14-14-14-14-13-13-13--\-|-8--8--8--9-----9--9--9-|-8--8--8--9-----9--9--9-|-9--9--9--8----8--8--8-|
D|-------------------------|------------------------|------------------------|-----------------------|
A|-------------------------|------------------------|------------------------|-----------------------|
D|-------------------------|------------------------|------------------------|-----------------------|

   E  E  E  Q     E  E  E   E  E  E  Q     E  E  E   E  E  E  Q     E  E  E   E  E  E  Q     E  E  E
G|-9--9--9--8-----8--8--8-|-8--8--8--9-----9--9--9-|-8--8--8--9-----9--9--9-|-9--9--9--8-----8--8--8-|
D|------------------------|------------------------|------------------------|------------------------|
A|------------------------|------------------------|------------------------|------------------------|
D|------------------------|------------------------|------------------------|------------------------|

   E  E  E  E  E  E  E  E
G|-8--8--8----------------|
D|------------------------|
A|----------6--7--7--7--7-|
D|------------------------|


[Outro]
    E  E  E  E  E  E  E  E   E  E  E  E  E  E  E  E   E  E  E  E  E  E  E  E   E  E  E  E  E  E  E  E
G|-------------------------|------------------------|------------------------|------------------------|
D|*------------------------|------------------------|------------------------|------------------------|
A|*-7--7--7--7--7--7--7--7-|-7--7--7--7--7--7--7--7-|------------------------|-7--7--7--7--7--7--7--7-|
D|-------------------------|------------------------|-9--9--9--9--9--9--9--9-|------------------------|

   E  E  E  E  E  E  E  E   E  E  E  E  E  E  E  E   E  E  E  E  E  E  E  E   Q     E  E  E  E  E  S S
G|------------------------|------------------------|------------------------|----------------------------|
D|------------------------|------------------------|------------------------|---------------------------*| X2
A|------------------------|-------------------6--6-|-6----------------------|---------------------------*|
D|-6--6--6--6--6--6--6--6-|-6--6--6--6--6--6-------|----9--9--9--9--9--9--0-|-2-----2--2--2--2--2--2-2/--|

    E  E  E  E  E  E  Q      E  E  E  E  E  E  E  S S   E  E  E  E  E  E  Q      E  E  E  E  E  E  E  S S
G|--------------------8----|-8--8--8--8--9--9--9--9-9-|------------------------|--------------------------|
D|*------------------------|--------------------------|------------------------|-------------9--9--9--9-9-|
A|*-7--7--7--7--7--7-------|--------------------------|-------------------7----|-7--7--7--7---------------|
D|-------------------------|--------------------------|-9--9--9--9--9--9-------|--------------------------|

   E  E  E  E  E  E  E  Q      E  E  E  E  E  E  E   E  E  E  E  E  E  E  E  Q      E  E  E  E  E  S S
G|------------------------|------------------------|------------------------|----------------------------|
D|------------------------|------------------------|------------------------|---------------------------*| X2
A|----------------------7-|----------------6--6--6-|-6----------------------|---------------------------*|
D|-6--6--6--6--6--6--6----|----6--6--6--6----------|----9--9--9--9--9--9--0-|-2-----2--2--2--2--2--2-2/--|

   W
G|------------|
D|------------|
A|------------|
D|-9----------|


Duration Legend
---------------
W - whole
H - half
Q - quarter
E - 8th
S - 16th
. - note dotted

Tablature Legend
----------------
/ -  slide up to
\ -  slide down to

            
            
Suggest correction
Creating personal tab
Creating personal tab
You can edit any tab online and save it as your Personal.

You can edit, replace or remove any tab part or add personal notes – all changes will be seen only by you.

Personal tabs can be accessed anytime from any device, even offline.
Learn more »
Give kudos to tab author, rate the tab!
1 2 3 4 5
comments
print report bad tab
guest
You may want to rate the tab now too:
select rating
Wanna post a correction for this tab? Suggest correction