Oops, an error
Loading. Please wait.
We have an official Rest My Chemistry tab made by UG professional guitarists. Check out the tab »
×
385 views 3 this week
no commentswrite comment
1 2 3 4 5
3 more votes to show rating
add to favorites
×
Save as Personal and add changes to this tab that will be seen only by you. Learn more ›
×
You can save this tab as Personal to edit and correct it or add notes. All changes will be seen only by you. Learn more »
launch autoscroll
font size
0
reset
guitar tuner
backing track
0:00
0:00
edit
Autoscroll
slow
fast
+/-
esc
set tempo
stop
Rest my Chemistry
Interpol
Our Love to Admire

Tuning: Drop-D

Note: The pause between the first and second note in every bar is always the same. 
      It varies in this tab because of the limited space in the bars.
      Sorry if its a bit confusing but I think the overall readability would suffer 
      if I  would enlarge the bars.
      Oh, and obviously: there is no 55th, 99th or 999th fret, these are 16th notes.

Bass comes in at 0:25.

Intro
G|------------------|------------------|------------------|------------------|
D|------------------|------------------|------------------|------------------|
A|------------------|------------------|------------------|------------------|x2
D|-5------5/9-9-7p0-|-2----2/7h99-7h99\|-5------5/9-9-7p0-|-2----2/7h99-7h99\|

G|------------------|
D|------------------|
A|------------------|
D|-5----------------|

G|------------------|------------------|------------------|------------------|
D|------------------|------------------|------------------|------------------|
A|------------------|------------------|------------------|------------------|x2
D|-5--55/7h99-7h99p0|-2------2/999-9-9\|-5--55/7h99-7h99p0|-2------2/999\4-4-|

Verse 1
G|------------------|------------------|------------------|------------------|
D|------------------|------------------|------------------|------------------|
A|------------------|------------------|------------------|------------------|
D|-5------5/9-9-7p0-|-2----2/7h99-7h99\|-5------5/9-9-7p0-|-2----2/7h99-7h99\|

G|------------------|------------------|------------------|------------------|
D|------------------|------------------|------------------|------------------|
A|------------------|------------------|------------------|------------------|
D|-5------5/9-9-7p0-|-2----2/7h99-7h99\|-5-----5-4------4-|-2------2/9-9\4-4-|

G|------------------|------------------|
D|------------------|------------------|
A|------------------|------------------|
D|-5-----5-4------4-|-2------2/9-9\4-4-|

Interlude
G|------------------|------------------|------------------|------------------|
D|------------------|------------------|------------------|------------------|
A|------------------|------------------|------------------|------------------|
D|-5---55/7h99-999p0|-2-----2/999-9999\|-5---55/7h99-999p0|-2------2/999\4-4-|

Verse 2
G|------------------|------------------|------------------|------------------|
D|------------------|------------------|------------------|------------------|
A|------------------|------------------|------------------|------------------|
D|-5------5/9-9-7p0-|-2----2/7h99-7h99\|-5------5/9-9-7p0-|-2----2/7h99-7h99\|

G|------------------|------------------|------------------|------------------|
D|------------------|------------------|------------------|------------------|
A|------------------|------------------|------------------|------------------|
D|-5------5/9-9-7p0-|-2----2/7h99-7h99\|-5-----5-4------4-|-2------2/9-9\4-4-|

G|------------------|------------------|
D|------------------|------------------|
A|------------------|------------------|
D|-5-----5-4------4-|-2------2/9-9\4-4-|

Interlude 2

G|------------------|
D|------------------|
A|------------------| rest 3 bars
D|-5----------------|

Guitar Solo

G|------------------|------------------|------------------|------------------|
D|------------------|------------------|------------------|------------------|
A|------------------|------------------|------------------|------------------|
D|-5------5/9-9-7p0-|-2----2/7h99-7h99\|-5------5/9-9-7p0-|-2----2/7h99-7h99\|

Verse 3

G|------------------|------------------|------------------|------------------|
D|------------------|------------------|------------------|------------------|
A|------------------|------------------|------------------|------------------|
D|-5------5/9-9-7p0-|-2----2/7h99-7h99\|-5------5/9-9-7p0-|-2----2/9-9p0-9-9\|

G|------------------|------------------|------------------|------------------|
D|------------------|------------------|------------------|------------------|
A|------------------|------------------|------------------|------------------|
D|-5------5/9-9-7p0-|-2----2/7h99-7h99\|-5-----5-4------4-|-2------2/9-9\4-4-|

G|------------------|------------------|
D|------------------|------------------|
A|------------------|------------------|
D|-5-----5-4------4-|-2------2/999\4-4-|

Interlude 3
G|------------------|
D|------------------|
A|------------------| rest 5 1/2 bars
D|-5----------------|

Outro (Play this until fade out)
G|------------------|------------------|------------------|------------------|
D|------------------|------------------|------------------|------------------|
A|------------------|------------------|------------------|------------------|
D|-5---55/7h99-999p0|-2---2p0/999-999p0|-5---55/7h99-999p0|-2----2p0/999\4-4-|


This tab is completely transcribed by ear. Have fun playing!

            
            
Suggest correction
Creating personal tab
Creating personal tab
You can edit any tab online and save it as your Personal.

You can edit, replace or remove any tab part or add personal notes – all changes will be seen only by you.

Personal tabs can be accessed anytime from any device, even offline.
Learn more »
Give kudos to tab author, rate the tab!
1 2 3 4 5
comments
print report bad tab
guest
You may want to rate the tab now too:
select rating
Wanna post a correction for this tab? Suggest correction