Oops, an error
Loading. Please wait.

The Heinrich Maneuver bass

version 2
version 2

Whole song

3,799 views 6 this week
no commentswrite comment
1 2 3 4 5
2 more votes to show rating
add to favorites
×
Save as Personal and add changes to this tab that will be seen only by you. Learn more ›
×
You can save this tab as Personal to edit and correct it or add notes. All changes will be seen only by you. Learn more »
launch autoscroll
font size
0
reset
guitar tuner
edit
Autoscroll
slow
fast
+/-
esc
set tempo
stop
Author
Tabbed By : Coentjah

It's almost the same as some other Heinrich Maneuver tabs that I found.
Except for the fact that I changed it to a Drop-D Tuning cause that's how Carlos 
plays it and some other minor changes.

It sounds ok to me.

Tuning: Drop-D

Verse - Bass in at 0.12

G|-------------------------------------------------------------------------------|
D|-------------------------------------------------------------------------------|
A|-2-2-2-------------5-5-------------5-5-6-7---2-2-2---------0-0-0-------2-2-2---|
D|-------5-5-5-5-5-5------7-7-7-7-7-7------------------5-5-5--------5-5-5--------|

G|-------------------------------------------------------------------------|
D|-------------------------------------------------------------------------|
A|--------0-0-0--------2-2-2-------2-2-2---------2-2-2-------0-0-0---------|
D|--5-5-5--------2-2-2-------2-2-2---------5-5-5-------5-5-5--------5-5-5--|

G|-------------------------------------------------------------------------|
D|-------------------------------------------------------------------------|
A|--2-2-2-------0-0-0-------2-2-2-------2-2-2-2-2-2------------------------|
D|--------5-5-5-------2-2-2-------2-2-2------------------------------------|

Pre Chorus 0.37

G|--------------------------------------------------------7-8-9------------|
D|--------------------------------------------------------------9-8-7------| 
A|---------------5-5-------------5-5-6-7-7-7-7-7-----7-7-------------------|x2
D|--5-5-5-5-5---------7-7-7-7-7-----------------9-9------------------------|



0.51

G|-------------------------------------------------------------------------|
D|-------------------------------------------------------------------------|
A|-------------------0-0-----0-----2-2-----2-----3-3-----3-----------------|x2
D|-2-2-5-5-2-2-5-2-2-----2-2---2-2-----2-2---2-2-----2-2-------------------|

Chorus 1.04

G|-------------------------------------------------------------------------|
D|-------------------------------------------------------------------------|
A|-------------------------------------------------------------------------|
D|---10-10-10-10-10-9-9-7-7-7-7-7-5-4-2-2-2-2-2-4-5-5-5-5-5----------------|


G|-------------------------------------------------------------------------|
D|-------------------------------------------------------------------------|
A|-------------------------------------------------------------------------|
D|---7-9-10-10-10-10-10-9-9-7-7-5-5-3-3-2-2--------------------------------|

1.17

G|-------------------------------------------------------------------------|
D|-------------------------------------------------------------------------|
A|-------------------------------------------------------------------------|
D|--0-0---0-0---0-0--------------------------------------------------------|
       123   123
Repeat whole tab until 2.27 (album version)
G|-------------------------------------------------------------------------|
D|-10-10-10-10-10-9-9-7-7-7-7-7-5-4-2-2-2-2-2-4-5-5-5-5-5-7-9--------------|
A|-------------------------------------------------------------------------|x2
D|-------------------------------------------------------------------------|

2.41
G|-------------------------------------------------------------------------|
D|-------------------------------------------------------------------------|
A|-------------------------------------------------------------------------|
D|--10-10-10-10-10-9-9-7-7-7-7-7-9-10-14-14-14-14\-10-10-10-10-10----------|

G|-------------------------------------------------------------------------|
D|-------------------------------------------------------------------------|
A|-------------------------------------------------------------------------|
D|--10-10-10-10-10-9-9-7-7-7-7-7-5-4-2-2-2-2-2-4-5-5-5-5-5--2h4h5----------|

G|-------------------------------------------------------------------------|
D|-------------------------------------------------------------------------|
A|-------------------------------------------------------------------------|
D|--10-10-10-10-10-10-10-7-7-7-7-7-7-7-2-2-2-2-2-2-2-5-5-5-5-5-5-5---------|

Repeat last part til end


| /  slide up
| \  slide down
| h  hammer-on
| p  pull-off
| ~  vibrato
| +  harmonic
| x  Mute note
===============================================================================

            
            
Suggest correction
Creating personal tab
Creating personal tab
You can edit any tab online and save it as your Personal.

You can edit, replace or remove any tab part or add personal notes – all changes will be seen only by you.

Personal tabs can be accessed anytime from any device, even offline.
Learn more »
Give kudos to tab author, rate the tab!
1 2 3 4 5
comments
print report bad tab
guest
You may want to rate the tab now too:
select rating
Wanna post a correction for this tab? Suggest correction