Oops, an error
Loading. Please wait.

Pinky Swear tab

version 2
version 2

Whole song

Interactive

1,945 views 3 this week
2 commentsread comments
1 2 3 4 5
1 last vote to show rating
add to favorites
×
Save as Personal and add changes to this tab that will be seen only by you. Learn more ›
×
You can save this tab as Personal to edit and correct it or add notes. All changes will be seen only by you. Learn more »
launch autoscroll
font size
0
reset
how to read this tab
guitar tuner
edit
Autoscroll
slow
fast
+/-
esc
set tempo
stop
Author
Difficulty
Pinky Swear :: Into it. Over it.

This is an alternate way of playing the song, much simpler to tune your guitar to:
        simply tune the D string up a whole step to E.

EAEGBe

Riff 1

e--|--------------------------------------------|
B--|-----0-x----0~--x-----------x---------------|
G--|-----4-x----4~--x-----------x---------------|
E--|-----0-x----0~--x-----2h4~--x---2h4~-4p2p0~-|
A--|--4-------0---------------------------------|
E--|-------------------0----------0-------------|


Riff 2

e--|----------------------------------------|
B--|-----0-x----0~--x------0-x----0~--x-----|
G--|-----4-x----4~--x------4-x----4~--x-----|
E--|-----0-x----0~--x------0-x----0~--x-----|
A--|--4-------0-----------------0-----------|
E--|-------------------0h2---------------0--|


Riff 3

this is the beginnings of the lead riff played.  It isn't exact but it will get you started

e--|---------------------------------------------------|
B--|---------------------------------------------------|
G--|--------------------------------6---4---4---4---4--|
E--|-----0---0---0---0---0---0----0---0---0---0---0----|
A--|---7---6---4---2---7---9---11----------------------|
E--|---------------------------------------------------|



Order of song:


Intro: Riff 1, Riff 1, Riff 2, Riff 1

Verse 1: Riff 1, Riff 1, Riff 2, Riff 1

Chorus: Riff 2, Riff 1, Riff 2, Riff 1

Bridge: Riff 1, Riff 1, Riff 2, Riff 1 with Riff 3 x2 over it

Verse 2: Riff 1, Riff 1, Riff 2, Riff 1

Chorus: Riff 2, Riff 1, Riff 2, Riff 1, play section twice

            
            
Suggest correction
Creating personal tab
Creating personal tab
You can edit any tab online and save it as your Personal.

You can edit, replace or remove any tab part or add personal notes – all changes will be seen only by you.

Personal tabs can be accessed anytime from any device, even offline.
Learn more »
Give kudos to tab author, rate the tab!
1 2 3 4 5
comments
print report bad tab
2 comments total.
+1 reply
benjamin.s.darr 40 Nov 15, 2013 07:54 PM

I just keep my guitar and standard and play the "e" on the second fret d string. Thanks btw.

0 reply
brianytreggah 106 Apr 08, 2014 02:40 PM

yeah, that's the fastest option, this just gives it a little bit more of that 'open tuning' vibe without going into the crazy tuning that he plays it in.. plus less stretching

guest
You may want to rate the tab now too:
select rating
Wanna post a correction for this tab? Suggest correction