Oops, an error
Loading. Please wait.

Viejos Ratones Del Tiempo bass

74 views 1 this week
no commentswrite comment
1 2 3 4 5
3 more votes to show rating
add to favorites
×
Save as Personal and add changes to this tab that will be seen only by you. Learn more ›
×
You can save this tab as Personal to edit and correct it or add notes. All changes will be seen only by you. Learn more »
launch autoscroll
font size
0
reset
guitar tuner
edit
Autoscroll
slow
fast
+/-
esc
set tempo
stop
          (4 veces)
G|------7--------------12h14\-|
D|---------5h7--7-------------|
A|-5--------------5-----------|
E|----------------------------|

    ?Viejos ratones del tiempo?
G|----------------------------------------------------------------
D|-----------------------------------------4---------4-4-4-4-4-4-4
A|-5---5-5-5---5-0---0-0-0---0-2---2-2-0-2----4-0-2---------------
E|----------------------------------------------------------------

    ?conozco bien mi camino?
G|-------9-------------------------7-7-----------------------------------------
D|-----9-----9---------9-------------------8-8-----------------------5-----5---
A|-7-----------7---7-7---7-6-5---5------5-------7-7----------------7-----------
E|-------------------------------------------------------7-7--0-5--------------

    ?nubes y enigmas me rondan?
G|----------------------------------------------------------------
D|---------------7---7-7-7---7-------------4---------4-4-4-4-4-4-4
A|-5---5-5-5---5---------------2---2-2-0-2----4-0-2---------------
E|----------------------------------------------------------------

    ?solo quiero descansar?                             ?donde hay sol?
G|-------9-9----------9---------------------------------------7-----6----4---4
D|-----9------9--------------------12----14---15--14-14-----7-----6-----------
A|-7--------------7-7----7--7|10-------0------------------5-----4-----2----2--
E|----------------------------------------------------------------------------

                   ?puesto que?
G|--------4--4-4------------------------14--14--14p12---14-14-14-14-
D|-2-4-------------------------------14-----------------------------
A|-----2-----------7---10---0-----12-----------------12-------------
E|------------------------------------------------------------------

   ?no reprimo mi llanto si es verdad?
G|-------------------------------------------------6---
D|-------10-------------9-------5--6-7-----------------
A|-8---8----8---5-7---7---7---5---------0-4----4------7
E|-----------------------------------------------------

   ?en la musica lagrima se dan?
G|------------------------------------------------6-6--
D|-------10-------------9-------5--6-7-----------------
A|-8---8----8---5-7---7---7---5---------0-4------------
E|-----------------------------------------------------

   ?se dan y es asi uouuu?
   -           -          -          -          -              -
G|-------------------7------------------------------------------------------
D|------7-7-7-----------------7-7-7--------------------7---7----------------
A|-0----------5----5---5-0----------5----5-3----0----0---0---0-5----5-5-5--0
E|--------------------------------------------------------------------------

  -               -             -              -                -
G|-----------------------------------------------------------------------------
D|7--7---7-5-------------------------------------------------------7--7-5------
A|-----------0--3-5----5-5----------5|5|5|0--3-5----5-5--3--5h7-0---------7-0-3
E|-------------------------0--3-5----------------------------------------------

   -             -             -             -              -
G|----------------------------------7--5------------------------------
D|-------------5-------------------------0-5-7----0-0-7-0------------2
A|-5---5-5-3/5---0----0-3-3-4--5--------------------------3-5-----3---
E|--------------------------------------------------------------------

   -               -            -            -            -
G|--------------------7---7-------------------------------------------
D|----7--7-7-5------------------7---7--5--7-------------3---7---7-5---
A|-0-----------7-0-5----5---5----------------5---5--3h5---0---------7-
E|--------------------------------------------------------------------

2:17
   -            -            -            -
G|----------------------------------6-6-----7-----9-------
D|-9----9-7-------------------------------5---5-7---7-7h9-
A|----------9-8-7----7-7--7--4----4-----------------------
E|--------------------------------------------------------

   -           -            -            -
G|--------------------9------------6-6-----7-----9-------
D|------9-9--5------9--------------------5---5-7---7-7-9-
A|-------------7---------7--4----4-----------------------
E|-7-----------------------------------------------------

   -            -             -            -
G|-------------------9--7------------6-6-----7-----9-------
D|------9--7--------------9-7--------------5---5-7---7-7-9-
A|------------0-7-------------4----4-----------------------
E|-7-------------------------------------------------------

   -            -                     -             -
G|---------------------7|9---7|9-------------6-6--------------
D|---9----9---------7|9---7|9---7|9-----------------5---------
A|-------------7--10---------------7\-4----4------4-----------
E|-7----7---7-------------------------------------------------

                                        (3 veces)
G|---------------------12h14\-|------7--------------12h14\-|
D|----------------------------|---------5h7--7-------------|
A|-5--------------------------|-5--------------5-----------|
E|----------------------------|----------------------------|

    ?por la colina de nacar?
G|----------------------------------------------------------------
D|---------------7---7-7-7---7-------------4---------4-4-4-4-4-4-4
A|-5---5-5-5---5---------------2---2-2-0-2----4-0-2---------------
E|----------------------------------------------------------------

    ?oigo reir otros vientos?
G|-------9-------9-9------------7-7-----------------------------------------
D|-----9-----9--------------------------8-8-----------------------5-----5---
A|-7-----------7-----7--0-5---5------5-------7-7----------------7-----------
E|----------------------------------------------------7-7--0-5--------------

    ?viejos ratones del tiempo?
G|----------------------------------------------------------------
D|---------------7---7-7-7---7-------------4---------4-4-4-4-4-4-4
A|-5---5-5-5---5-0-------------2---2-2-0-2----4-0-2---------------
E|----------------------------------------------------------------

    ?no pretendan ignorar?                              ?todo el sol?
G|-----9-9-----------9----------------------------------------7-----6----4-4-4
D|---9------9------9---9-----------12----14---15--14-14-----7-----6-----------
A|7------------7-7-------7--7|10-------0------------------5-----4-----2-------
E|----------------------------------------------------------------------------

                   ?todo el mar?
G|--------4--4-4------------------14-14--------14--14----------
D|-2-4----------------------------------14---------------------
A|-----2-----------7---10---0--0-----------12----------12-12-12
E|-------------------------------------------------------------

     ?y el olivo de los montes tiene sal?
G|----11----------------------7---------------
D|--------------------------7---7-9---7---5---
A|-9--------------------5---------------------
E|-----------3---5--3-------------------------

                          (6 veces)
     ?y el otoño que se esfuma viene y va?
G|-------9|11----9|11----9|11-----------------------7--------------|
D|---9|11----9|11----9|11----9|11|5---7---5-------7---7-9----------|
A|-9------------------------------------------5--------------------|
E|----------------------------------------------------------5---3--|

     ?no,no se nunca tu nombre, ¿donde estas?
G|------9|11----9|11----9|11-----------------------7---------------------------
D|--9|11----9|11----9|11----9|11|5---7---5-------7---7-9-----------------------
A|9------------------------------------------5---------------------------------
E|-----------------------------------------------------------------------------

5:34
G|-------------------------------4/6-------------------------------------------
D|9\---5-----------------------------------------------------------------------
A|----------------------------------------------------------------5-5----------
E|-----------------------------------------------------------------------------

Los guiones en la mitad de la tab los puse para indicar el comienzo de cada
compas.

     /: slide up (?arrastrar? hacia adelante)
     \: slide down (?arrastrar hacia atrás)
     h: hammer on (ligado)
 x |x : tocar las dos notas consecutivamente rápido por Ej. 9|11

Viejos ratones del tiempo (Spinetta)
Viejos ratones del tiempo,
conozco bien mi camino...
nubes y enigmas me rondan,
solo quiero descansar...
donde hay sol,
puesto que, no reprimo mi llanto,
sí es verdad...

En la música lágrimas se dan,
se dan y es así

Por la colina de nácar,
oigo reír otros vientos...

Viejos ratones del tiempo,
no pretendan ignorar,
todo el sol, todo el mar...

Y el olivo de los montes tiene sal,
y el otoño que se esfuma viene y va...

El que corre muy aprisa nunca llega...
La noche con luz se mira hasta el día...
Y el olivo de los montes tiene sal...
Y el otoño que se esfuma viene y va...
La noche con luz se mira hasta el día...
No, no sé nunca tu nombre
¿dónde estás?

            
            
Suggest correction
Creating personal tab
Creating personal tab
You can edit any tab online and save it as your Personal.

You can edit, replace or remove any tab part or add personal notes – all changes will be seen only by you.

Personal tabs can be accessed anytime from any device, even offline.
Learn more »
Give kudos to tab author, rate the tab!
1 2 3 4 5
comments
print report bad tab
guest
Wanna post a correction for this tab? Suggest correction