Oops, an error
Loading. Please wait.

I Need You Tonight tab

version 1
version 1

Whole song

Interactive

by INXS
78,732 views 195 this week
5 commentsread comments
1 2 3 4 5
x 17
add to favorites
×
Save as Personal and add changes to this tab that will be seen only by you. Learn more ›
×
You can save this tab as Personal to edit and correct it or add notes. All changes will be seen only by you. Learn more »
launch autoscroll
font size
0
reset
how to read this tab
guitar tuner
edit
Autoscroll
slow
fast
+/-
esc
set tempo
stop
Author
-------------------------------------------------------------------------------
                          "I Need You Tonight" --- INXS
-------------------------------------------------------------------------------

Tabbed by: [travis]

Tuning:
Guitar 1: Standard (EADGBE)
Guitar 2: Standard (EADGBE)
Guitar 3: Standard (EADGBE)
Guitar 4: Drop D (DADGBE)

 
[Guitar 1]

e|--8---8---8---|
B|--8---8---8---|
G|--9---9---9---|
D|-10--10--10---|
A|--------------|
E|--------------|


[Guitar 2]

e|-11-11-11-11-10-10-10-8-|
B|-11-11-11-11-10-10-10-8-|
G|------------------------| 
D|------------------------|
A|------------------------|
E|------------------------|


[Guitar 3]
(Light palm mute. Play this for the rest of the song)

e|----------------------------------------|
B|----------------------------------------|
G|-5-5-7-8-7--5-7-8-7--5-5-7-8-7--5-7-8-7-|
D|----------------------------------------|
A|----------------------------------------|
E|----------------------------------------|
   ......................................


[Guitar 4]
(This is a little bit after the chorus)
e|-------------------------------------------|
B|-------------------------------------------|
G|-------------------------------------------|
D|-------------------------------------------|
A|-3--1--3----3--1--3----3--1--3----3--1--3--|
D|-------------------------------------------|


[Guitar 4]
(This is close towards the end of the song.)

e|--------------------------------------------|
B|--------------------------------------------|
G|--------------------------------------------|
D|--------------------------------------------|
A|-3--1--3----------------3--1--3-------------|
D|----------3--3--1--3-------------3--3--1--3-|

            
            
Suggest correction
Creating personal tab
Creating personal tab
You can edit any tab online and save it as your Personal.

You can edit, replace or remove any tab part or add personal notes – all changes will be seen only by you.

Personal tabs can be accessed anytime from any device, even offline.
Learn more »
comments
print report bad tab
5 comments total. Showing first comments. show 1 bad comment
0 reply
camro321 10 Feb 19, 2014 03:59 AM, edited at 09:05 am

Thanks for the awesome tab mate. Such a good song, and you have to only accurate guitar tab. Keep it up. :)

-2 reply
N04Hz_Ark 510 Jan 19, 2015 08:13 PM, edited on January 20 2015, 01:13 am

Another way to play Guitar 1:|-3----3----3----6--6--6--6--5--5--5--3--||-5----5----5----8--8--8--8--6--6--6--5--||-5----5----5----8--8--8--8--7--7--7--5--| %|----------------------------------------||----------------------------------------||----------------------------------------|

They key is also C :-)

guest
You may want to rate the tab now too:
select rating
Wanna post a correction for this tab? Suggest correction