Oops, an error
Loading. Please wait.

Suicide Blonde tab

version 2
version 2

Whole song

  • Complete tabs The main guitar is here as well as t... Show more

Interactive

by INXS
817 views 42 this week
no commentswrite comment
1 2 3 4 5
2 more votes to show rating
add to favorites
×
Save as Personal and add changes to this tab that will be seen only by you. Learn more ›
×
You can save this tab as Personal to edit and correct it or add notes. All changes will be seen only by you. Learn more »
launch autoscroll
font size
0
reset
how to read this tab
guitar tuner
backing track
0:00
0:00
edit
Autoscroll
slow
fast
+/-
esc
set tempo
stop
Author
Difficulty
About this tab version
Complete tabs The main guitar is here as well as the solo and some ideas for the harmonica and playing arround. Was this info helpful? Yes No
There is no serious tab for this great song!

Song is fairly simple and regular.

The base which you can find out there and its ok is: [Em   G A] (Listen to the son for rhythm)

OK TABS:

[Intro]

Small harmonica Riff, something like this:

e|-------0h3/7---/12---------------------------------------------------------|
B|-----3---------------------------------------------------------------------|
G|---------------------------------------------------------------------------|
D|---------------------------------------------------------------------------|
A|---------------------------------------------------------------------------|
E|---------------------------------------------------------------------------|

2 Guitars (You have to figure out the rhythm)
Couple of times:

Dont'you know what you are doing!!!
   Em                       G    A
e|-----------------------|-3---------|
B|-----------------------|-3----2----|
G|-----------------------|-0----2----|x 4
D|-2---------x2x2x2x2----|-0----2----|
A|-2---------x2x2x2x2----|-2----0----|
E|-0---------x0x0x0x0----|-3---------|

And after 4 it goes:

    Em                 G      A
Let ring
e|-----------------------------------|
B|--8--------------------------------|
G|--9--------------------------------|
D|--9--------------------------------|
A|--7--------------------------------|
E|-----------------------------------|

e|-12---12--xx12--x---12--xx---------|
B|-12---12--xx1212x-1212--xx---------|
G|-12---12--xx1212xx12----xx---------|
D|----------xx12--xx------xx---------|
A|-----------------------------------|
E|-----------------------------------|

The harmonica solo goes something like this (is very difficult to tab)

e|--------10v----10--12h10--12h10---------12h10--12h10-----------12h10--12h10---------12h10--12h10--------|
B|--12-12-----12-----  --12-----12--12-12------12-----12--12-12-------12-----12-12-12------12-----12------|
G|--------------------------------------------------------------------------------------------------------|
D|--------------------------------------------------------------------------------------------------------|
A|--------------------------------------------------------------------------------------------------------|
E|--------------------------------------------------------------------------------------------------------|

e|-10/12-12121212---1212----14/15vvvvvv--------------------------------------|
B|-10/12-12121212---1212----14/15vvvvvv--------------------------------------|
G|---------------------------------------------------------------------------|
D|---------------------------------------------------------------------------|
A|---------------------------------------------------------------------------|
E|---------------------------------------------------------------------------|

Now main riff: (Some echo and delay, very low), if you listen carefully on the second bar (the closing one) 
there is only one A chord syncopated at the end

Pre verse

Suicide blonde, suicide blonde
Suicide blonde, suicide blonde

    Em        G        A           Em         G        A
e|--7--xx--779/10------9-9------|--7--xx--779/10--------9------|
B|--8--xx--888-8----xx-1010-----|--8--xx--888-8----xx---10-----|
G|--7--xx--777-7----xx-9-9------|--7--xx--777-7----xx---9------|
D|--9--xx--999-9----xx----------|--9--xx--999-9----xx----------|
A|--7--xx--777-7----------------|--7--xx--777-7----------------|
E|------------------------------|------------------------------|

[Verse 1]

Suicide blonde was the colour of her hair
Like a cheap distraction
For a new affair
She knew it would finish
Before it began
Something tells me you lost the plan

    Em                 G      A
Let ring
e|-----------------------------------|
B|--8--------------------------------|
G|--9--------------------------------|
D|--9--------------------------------|
A|--7--------------------------------|
E|-----------------------------------|

e|-12---12--xx12--x---12--xx---------|
B|-12---12--xx1212x-1212--xx---------|
G|-12---12--xx1212xx12----xx---------|
D|----------xx12--xx------xx---------|
A|-----------------------------------|
E|-----------------------------------|

[Chorus]

You want to make her
Suicide Blonde
Love devastation
Suicide Blonde

    Em        G        A           Em         G        A
e|--7--xx--779/10------9-9------|--7--xx--779/10--------9------|
B|--8--xx--888-8----xx-1010-----|--8--xx--888-8----xx---10-----|
G|--7--xx--777-7----xx-9-9------|--7--xx--777-7----xx---9------|
D|--9--xx--999-9----xx----------|--9--xx--999-9----xx----------|
A|--7--xx--777-7----------------|--7--xx--777-7----------------|
E|------------------------------|------------------------------|

You want to make her
Suicide Blonde
Love devastation
Suicide Blonde

    Em        G        A           Em         G        A
e|--7--xx--779/10------9-9------|--7--xx--779/10--------9------|
B|--8--xx--888-8----xx-1010-----|--8--xx--888-8----xx---10-----|
G|--7--xx--777-7----xx-9-9------|--7--xx--777-7----xx---9------|
D|--9--xx--999-9----xx----------|--9--xx--999-9----xx----------|
A|--7--xx--777-7----------------|--7--xx--777-7----------------|
E|------------------------------|------------------------------|

[Verse 2]

She stripped to the beat
But her clothes stay on
White light everywhere
But you can't see a thing
Such a squeeze
A mad, sad moment
Glory to you, glory to you, take me there

    Em                 G      A
Let ring
e|-----------------------------------|
B|--8--------------------------------|
G|--9--------------------------------|
D|--9--------------------------------|
A|--7--------------------------------|
E|-----------------------------------|

e|-12---12--xx12--x---12--xx---------|
B|-12---12--xx1212x-1212--xx---------|
G|-12---12--xx1212xx12----xx---------|
D|----------xx12--xx------xx---------|
A|-----------------------------------|
E|-----------------------------------|

Intro with armonica

[Verse 3]

Got some revelation put into your hands
Save you from your misery
Like rain across the land
Don't you see
The colour of deception
Turning your world around again

    Em                 G      A
Let ring
e|-----------------------------------|
B|--8--------------------------------|
G|--9--------------------------------|
D|--9--------------------------------|
A|--7--------------------------------|
E|-----------------------------------|

e|-12---12--xx12--x---12--xx---------|
B|-12---12--xx1212x-1212--xx---------|
G|-12---12--xx1212xx12----xx---------|
D|----------xx12--xx------xx---------|
A|-----------------------------------|
E|-----------------------------------|

[Chorus]

You want to make her
Suicide Blonde
Love devastation
Suicide Blonde

    Em        G        A           Em         G        A
e|--7--xx--779/10------9-9------|--7--xx--779/10--------9------|
B|--8--xx--888-8----xx-1010-----|--8--xx--888-8----xx---10-----|
G|--7--xx--777-7----xx-9-9------|--7--xx--777-7----xx---9------|
D|--9--xx--999-9----xx----------|--9--xx--999-9----xx----------|
A|--7--xx--777-7----------------|--7--xx--777-7----------------|
E|------------------------------|------------------------------|

You want to make her
Suicide Blonde
Love devastation
Suicide Blonde

    Em        G        A           Em         G        A
e|--7--xx--779/10------9-9------|--7--xx--779/10--------9------|
B|--8--xx--888-8----xx-1010-----|--8--xx--888-8----xx---10-----|
G|--7--xx--777-7----xx-9-9------|--7--xx--777-7----xx---9------|
D|--9--xx--999-9----xx----------|--9--xx--999-9----xx----------|
A|--7--xx--777-7----------------|--7--xx--777-7----------------|
E|------------------------------|------------------------------|

Now it goes the break:

You wanna make her
    Em        G        A           Em         G        A
e|--7--xx--779/10------9-9------|--7--xx--779/10--------9------|
B|--8--xx--888-8----xx-1010-----|--8--xx--888-8----xx---10-----|
G|--7--xx--777-7----xx-9-9------|--7--xx--777-7----xx---9------|
D|--9--xx--999-9----xx----------|--9--xx--999-9----xx----------|
A|--7--xx--777-7----------------|--7--xx--777-7----------------|
E|------------------------------|------------------------------|

You wanna make
    Em        G        A           Em         G        A
e|--7--xx--779/10------9-9------|--7--xx--779/10--------9------|
B|--8--xx--888-8----xx-1010-----|--8--xx--888-8----xx---10-----|
G|--7--xx--777-7----xx-9-9------|--7--xx--777-7----xx---9------|
D|--9--xx--999-9----xx----------|--9--xx--999-9----xx----------|
A|--7--xx--777-7----------------|--7--xx--777-7----------------|
E|------------------------------|------------------------------|

Girls laughing!

Everything you wanna be
    Em                 G      A
Let ring
e|-----------------------------------|
B|--8--------------------------------|
G|--9--------------------------------|
D|--9--------------------------------|
A|--7--------------------------------|
E|-----------------------------------|

e|-12---12--xx12--x---12--xx---------|
B|-12---12--xx1212x-1212--xx---------|
G|-12---12--xx1212xx12----xx---------|
D|----------xx12--xx------xx---------|
A|-----------------------------------|
E|-----------------------------------|

Everything you are
    Em                 G      A
Let ring
e|-----------------------------------|
B|--8--------------------------------|
G|--9--------------------------------|
D|--9--------------------------------|
A|--7--------------------------------|
E|-----------------------------------|

e|-12---12--xx12--x---12--xx---------|
B|-12---12--xx1212x-1212--xx---------|
G|-12---12--xx1212xx12----xx---------|
D|----------xx12--xx------xx---------|
A|-----------------------------------|
E|-----------------------------------|

Guitar Solo


  E    G  A
e|0-0-0-0--|
B|-0-0-0-0-|
G|---------|x8
D|---------|
A|---------|
E|---------|

  E   G A  E   G  A   E   G A     E   G  A       E    G  A Very low
e|-12vv----7-10vvvv----5-7vvvvv---3-5vvvvvvvv---(3)/(2)/(0)------------------|
B|---------------------------------------------------------------------------|
G|---------------------------------------------------------------------------|
D|---------------------------------------------------------------------------|
A|---------------------------------------------------------------------------|
E|---------------------------------------------------------------------------|
[repeat till fade]

Final Chorus and fade out

You want to make her
Suicide Blonde
Love devastation
Suicide Blonde

    Em        G        A           Em         G        A
e|--7--xx--779/10------9-9------|--7--xx--779/10--------9------|
B|--8--xx--888-8----xx-1010-----|--8--xx--888-8----xx---10-----|
G|--7--xx--777-7----xx-9-9------|--7--xx--777-7----xx---9------|
D|--9--xx--999-9----xx----------|--9--xx--999-9----xx----------|
A|--7--xx--777-7----------------|--7--xx--777-7----------------|
E|------------------------------|------------------------------|

Guitar 2 plays around something like this:

e|--12------12-10----12----12----12----12-10------------12-10----------------|
B|-----12---------10----12----12----12-------12----12--------10--------------|
G|--------12------------------------------------12----12---------------------|
D|---------------------------------------------------------------------------|
A|---------------------------------------------------------------------------|
E|---------------------------------------------------------------------------|


Regards.
Tintinvox


************************************

| h  Hammer-on
| /  Slide up
| x  Dead note

************************************

            
            
Suggest correction
Creating personal tab
Creating personal tab
You can edit any tab online and save it as your Personal.

You can edit, replace or remove any tab part or add personal notes – all changes will be seen only by you.

Personal tabs can be accessed anytime from any device, even offline.
Learn more »
Give kudos to tab author, rate the tab!
1 2 3 4 5
comments
print report bad tab
guest
You may want to rate the tab now too:
select rating
Wanna post a correction for this tab? Suggest correction