Oops, an error
Loading. Please wait.

Camino Al Sol tab

version 1
version 1

Whole song

17 views 1 this week
no commentswrite comment
1 2 3 4 5
3 more votes to show rating
add to favorites
×
Save as Personal and add changes to this tab that will be seen only by you. Learn more ›
×
You can save this tab as Personal to edit and correct it or add notes. All changes will be seen only by you. Learn more »
launch autoscroll
font size
0
reset
how to read this tab
guitar tuner
edit
Autoscroll
slow
fast
+/-
esc
set tempo
stop
HABLEN PESX, ESTA CANCION ME BACILE, TA QUE ES FACIL
AHH Y HAY ALGUNAS PARTES QUE LAS NOTAS SON MENORES........MANYAN!

intro: 
       A D F# B
       A D F# B C E

(a la ves con el punteo)

B|--55------------------------77------------------------|
G|-----77-66-44-22-44-66-77------77-66-44-22-44-66-77---|

B|--55------------------------77-----------77-----------|
G|-----77-66-44-22-44-66-77------77-66-44-----77-66-44--|

B|--55------------------------77------------------------|
G|-----77-66-44-22-44-66-77------77-66-44-22-44-66-77---|

B|--55------------------------77------------------------|
G|-----77-66-44-22-44-66-77------77-66-44---7--4--------|


A                          D        
ya casi olvido akellos dias en q vivi entre
                  F#                 B    D E
sonrisas en un mundo que nunca fue real
A                        D
si te preguntas donde estoy me fui a un lugar
         F#              B           C      E
en donde no se sufre jamas, y nadie me siguio


C           D    (F#-E-D)       F#
hoy me marche con mis dudas al sol
            E    (F#-E-D)
y me entregue al olvido
C          D      (F#-E-D)          F#
hoy descanse deje el futuro atras
         E    (F#-G#-A)
nadie vino conmigo


A                          D        
recuerdo buscar un especial y apartado 
   F#                    B    D E 
lugar donde el tiempo paro
A                   D     
celebrando la ruptura con el pasado donde
F#                  B           C   E                   
yo le sonrei al dolor y a la desilusion


C          D     (F#-E-D)       F#
hoy me escape con mis ansias al mar
            B    (F#-E-D)    
y me entregue al olvido
C               D  (F#-E-D)   F#
hoy me sente deje la prisa atras
           E  (F#-E-D) 
nadie espero por mi hoy


A D F# B D E (palm)


G|-----------------------------7-9-7-6-77-9--|
D|-22-----------(x4)-------------------------|
A|----55-44-55------------4------------------|
E|---------------------2---------------------|


A                          D        
ya casi olvido akellos dias en q vivi entre
                  F#                 B    D E
sonrisas en un mundo que nunca fue real
A                        D
si te preguntas donde estoy me fui a un lugar
         F#              B           C      E
en donde no se sufre jamas, y nadie me siguio


C           D    (F#-E-D)       F#
hoy me marche con mis dudas al sol
            E    (F#-E-D)
y me entregue al olvido
C          D      (F#-E-D)          F#
hoy descanse deje el futuro atras
         E    (F#-G#-A)                D E-F D  
nadie vino conmigo


B|--55------------------------77------------------------|
G|-----77-66-44-22-44-66-77------77-66-44-22-44-66-77---|

B|--55------------------------77------------------------|
G|-----77-66-44-22-44-66-77------77-66-44---7--4--------|


BUENO AVER SI CORRIEGEN EL PUNTEO (creo)  
UN SALUDO PA LE GENTE DEL MARISTAS Y PA LA BASURA DE  
'pura perdida', Y PA D-KBZA PESX   QUE CREO QUE VAMOS BIEN
Y BAJENSE NUESTRA SONG EN 23 PUNK    ..... suicidio ....
Y SALUDO PA MI CULO

            
            
Suggest correction
Creating personal tab
Creating personal tab
You can edit any tab online and save it as your Personal.

You can edit, replace or remove any tab part or add personal notes – all changes will be seen only by you.

Personal tabs can be accessed anytime from any device, even offline.
Learn more »
Give kudos to tab author, rate the tab!
1 2 3 4 5
comments
print report bad tab
guest
Wanna post a correction for this tab? Suggest correction