Oops, an error
Loading. Please wait.

In-A-Gadda-Da-Vida tab

version 6
version 6

Interactive

1,868 views 1 this week
no commentswrite comment
1 2 3 4 5
3 more votes to show rating
add to favorites
×
Save as Personal and add changes to this tab that will be seen only by you. Learn more ›
×
You can save this tab as Personal to edit and correct it or add notes. All changes will be seen only by you. Learn more »
launch autoscroll
font size
0
reset
how to read this tab
guitar tuner
backing track
0:00
0:00
edit
Autoscroll
slow
fast
+/-
esc
set tempo
stop
Author
-------------------------------------------------------------------------------
                             IN-A-GADDA-DA-VIDA - Iron Butterfly
-------------------------------------------------------------------------------
Tabbed by: Matt Corbin + Tom Lockwood
Email: rdx20-01@hotmail.com

Tuning: Standard (EADGBe)

This is the version from the single, the one that is about 3 minutes long

(Tabbed with help from my guitar teacher)

Main Riff

e|---------------------------------------------------------------------------|
B|---------------------------------------------------------------------------|
G|---------------------------------------------------------------------------|
D|---------------------------------------------------------------------------|
A|----------8--7---------12--11--10------------------------------------------|
E|--10--10--------8--10--------------8---------------------------------------|

Bridge

e|--------------------------------------------------------------------------|
B|--------------------------------------------------------------------------|
G|--------------------------------------------------------------------------|
D|------------------6--7--6--7--8--7--6----7--6-----------------------------|
A|------7--8--7--8-------------------------------8--7-----------------------|
E|--10----------------------------------------------------------------------|

Chorus pt.1
repeat this a bunch of times.....

e|--------------------------------------------------------------------------|
B|--------------------------------------------------------------------------|
G|--------------------------------------------------------------------------|
D|--12----------------12--11--10--9--------------9--10--11------------------|
A|--10----------10----10---9---8--7---------7----7---8---9------------------|
E|------10--13-----------------------7--10----------------------------------|

Chorus pt.2
....then when it gets higher do this a bunch of times

e|--------------------------------------------------------------------------|
B|--------------------------------------------------------------------------|
G|--------------------------------------------------------------------------|
D|--14----------------14--13--12--11--------------11--12--13----------------|
A|--12----------12----12--11--10---9---------9-----9--10--11----------------|
E|------12--15------------------------9--13---------------------------------|

Chorus pt.3 
do this when he goes "Please take my haaaaaaaaaaaaaaaaaaaaaaaaaaaaaaaaaaaand"

e|--------------------------------------------------------------------------|
B|-----------/12--11--10--11b13r11------------------------------------------|
G|-------------------------------------7/10\6/7-----------------------------|
D|--------------------------------------------------------------------------|
A|--9-----------------------------------------------------------------------|
E|--7-----------------------------------------------------------------------|

Solo-y Fill-y Things
I do these at the end when it only does half the main riff and theres the 
little spots for stuff (i think its the beginning of the album version solo 
:P)

e|------------|-----------------------|---------------|---------------------|
B|------------|-----------------------|---------------|---------------------|
G|-10--12--12-|--12b14r12--12------10-|-12--10--12b14-|---------------------|
D|------------|----------------12-----|---------------|---------------------|
A|------------|-----------------------|---------------|---------------------|
E|------------|-----------------------|---------------|---------------------|

e|--------------------------------------------------------------------------|
B|-15b17r15-15-13-15-15b17r15-15--------------------------------------------|
G|--------------------------------------------------------------------------|
D|--------------------------------------------------------------------------|
A|--------------------------------------------------------------------------|
E|--------------------------------------------------------------------------|

FINI!


| /  slide up
| \  slide down
| h  hammer-on
| p  pull-off
| ~  vibrato
| +  harmonic
| x  Mute note
===============================================================================

            
            
Suggest correction
Creating personal tab
Creating personal tab
You can edit any tab online and save it as your Personal.

You can edit, replace or remove any tab part or add personal notes – all changes will be seen only by you.

Personal tabs can be accessed anytime from any device, even offline.
Learn more »
Give kudos to tab author, rate the tab!
1 2 3 4 5
comments
print report bad tab
guest
You may want to rate the tab now too:
select rating
Wanna post a correction for this tab? Suggest correction