Oops, an error
Loading. Please wait.

Iron Butterfly Theme bass

version 1
version 1

Whole song

3,657 views 3 this week
3 commentsread comments
1 2 3 4 5
2 more votes to show rating
add to favorites
×
Save as Personal and add changes to this tab that will be seen only by you. Learn more ›
×
You can save this tab as Personal to edit and correct it or add notes. All changes will be seen only by you. Learn more »
launch autoscroll
font size
0
reset
guitar tuner
edit
Autoscroll
slow
fast
+/-
esc
set tempo
stop
Author
Difficulty
-------------------------------------------------------------------------------
     Iron Butterfly Theme - Iron Butterfly
-------------------------------------------------------------------------------

Tabbed By : Bob Krull
e-mail: noir15@gmail.com
Tuning: Standard
*The guitar part goes over the same notes, but i play bass so here's the only tab of 
song in bass.

  *intro*
G|------|-rest-|------------------------------------------------------------|
D|-rest-|------|------------------------------------------------------------|
A|------|-rest-|------------------------------------------------------------|
E|-rest-|-----6|h8-8-8-8-8-8-8-6h8-8-8-8-8-8-8-6h8-8-8-8-8-8-8 8/slide------|


 *00:11*
G|--------------------|--------------------------------|
D|.-10----10------10--|.---------------------10----10-.|
A|.-------------------|.------8---6-------------------.|
E|--8-8-8-8-8-8-8-8-8-|8-6-8-------6-6/8-8-8-8-8-8-8---|

 *00:34*
G|--------------------------------------------------------------------------|
D|-----------5-5-5-5-4-4-4-4-4-4-----543-3-3-3-3-5---3---------------3h55---|
A|-------------------------------3h5-------------------6-6-6-6-6-3h5--------|
E|-8-8-8-8----------------------------------------------------------------8-|

 *00:44*
G|-----------------5-5-5-5-5-5-----543-3-3-3-3-5--3-------------------------|
D|---------5-5-5-5-------------3h5------------------5-5-5-5-5-5-5-5---------|
A|--------------------------------------------------------------------------|
E|-8-8-8-8------------------------------------------------------------------|

 *00:55*
G|-------3-----3----7-7-7-5-3-----------------------------------------------|
D|-4h5-------5----5----------5---3-3-3-3-----3-3-3-3-3-3-3-3-3-3-3-3-3------|
A|---------------------------------------5h6--------------------------------|
E|--------------------------------------------------------------------------|

G|------------------------------------|
D|-----3---3-5-5-5-4h5-4h5---5/slide--|
A|-5h6---6----------------------------|
E|------------------------------------|

 *01:11*
G|--------------|---------------|
D|--------------|.-------------.|
A|-------6------|.------6------.|
E|-8--88----6-7-|-8--68----6-7--|


That's pretty much how it goes, the last part gets repeated a lot throughout the guitar 
then everything starts over again when solo is done.


| /  slide up
| \  slide down
| h  hammer-on
| p  pull-off
| ~  vibrato
| +  harmonic
| x  Mute note
===============================================================================

            
            
Suggest correction
Creating personal tab
Creating personal tab
You can edit any tab online and save it as your Personal.

You can edit, replace or remove any tab part or add personal notes – all changes will be seen only by you.

Personal tabs can be accessed anytime from any device, even offline.
Learn more »
Give kudos to tab author, rate the tab!
1 2 3 4 5
comments
print report bad tab
3 comments total.
0 reply
bonbrian 30 Oct 02, 2008 11:04 PM

Hello Bob! i sent to you an e-mail.

The Tab is Great! Better than mine. xD

0 reply
Busproof 225 Jan 03, 2009 09:40 PM

Great tab of a great song. Seriously, this is great. Good job man.

0 reply
SoftParade1967 522 May 03, 2009 06:34 PM

Its about time there are other iron butterfly bass tabs that arent in-a-gadda-da-vida! great tab!

guest
You may want to rate the tab now too:
select rating
Wanna post a correction for this tab? Suggest correction