Oops, an error
Loading. Please wait.

Soldier In Our Town bass

1,014 views 1 this week
no commentswrite comment
1 2 3 4 5
1 last vote to show rating
add to favorites
×
Save as Personal and add changes to this tab that will be seen only by you. Learn more ›
×
You can save this tab as Personal to edit and correct it or add notes. All changes will be seen only by you. Learn more »
launch autoscroll
font size
0
reset
guitar tuner
edit
Autoscroll
slow
fast
+/-
esc
set tempo
stop
Soldier In Our Town - Iron butterfly   
   


Theres a soldier here today


G------------------------------|
D------------------------------|
A-------------------------3----|
E--0---------------------------|

   
   but you don?t bare steel in any way       oh no
G|--------------------------------------------------|
D|--------------------------------------------------|
A|-0------------------------------------------------|
E|----------------------------3-----------------0---|

   
   she?s   like   a   bow       seeking a wooden arrow
G-------------------------------------------------------|
D-------------------------------------------------------|
A--0----------------------------3-----------------------|
E----------------------0--------------------------0-----|

   
   pointing the way--    to love?
G----------------------------------|
D----------------------------------|
A---------------3------------2-----|
E--0-------------------------------|





   We all know how we can hate 
G-------------------------------|
D-------------------------------|
A--------------------------3----|
E--0----------------------------|



   
  
   just as strong as we could ever love     oh no
G--------------------------------------------------|
D--------------------------------------------------|
A--0-----------------------------------------------|
E----------------------------------3------------0--|



   
   we   can   love,      we can love, 
G-------------------------------------|
D-------------------------------------|
A---0-------------------3-------------|
E--------------0-----------------0----|

   
   
   God bless you, God     for  sending man a woman
G---------------------------------------------------|
D---------------------------------------------------|
A--0--------------------------3---------------------|
E------------------0--------------------------0-----|


   
   pointing the way     to  love-  we gotta
G---------------------------------------------|
D---------------------------------------------|
A---------------3------------2----------------|
E---0-----------------------------------------|



   
   love^-------- a woman,   we gotta, love^------ a woman
G-------------------------------------------------------|
D-------------------------------------------------------|
A------------------5--------------------------------5---|
E--1----------------------------------1-----------------|

              
   love^-------- a woman,   we gotta--
G---------------------------------------|
D---------------------------------------|
A-----------------5---------------------|
E---1---------------------------------0-|

   
   there?s a statue in the square 
G---------------------------------|
D---------------------------------|
A---------------------------3-----|
E---0-----------------------------|

   
   but the things they?re hiding it ain?t fair
G----------------------------------------------------|
D----------------------------------------------------|
A---0------------------------------------------------|
E----------------------------------3----------------0|

      
   
   it ain?t fair lord         the things they?re hiding
G-------------------------------------------------------------|
D-------------------------------------------------------------|
A---0-------------------------3-------------------------------|
E-----------------0---------------------------------0---------|



   
   ?cause beneath the stone,  the greatest man is all alone
G---------------------------------------------------------|
D---------------------------------------------------------|
A--3----------------------------------------0------------0|
E-------------------0-------------------------------------|




   without a woman to love,          without a woman to shove
G---------------------------------------------------------------|
D---------------------------------------------------------------|
A--3------------------0---------------------------------3-------|
E-------------------------------------0-------------------------|



   without a woman to point the way to love   we gotta
G-------------------------------------------------------|
D-------------------------------------------------------|
A---------------------3-----------------2---------------|
E--0----------------------------------------------------|

   
   love^-------- a woman,   we gotta, love^------ a woman
G----------------------------------------------------------
D----------------------------------------------------------
A------------------5--------------------------------5------
E--1----------------------------------1--------------------

        
   love^-------- a woman,   we gotta--
G----------------------------------------
D----------------------------------------
A-----------------5----------------------
E--1----------------------------------0--


   
   There?s a picture on the wall
G---------------------------------
D---------------------------------
A---------------------------3-----
E---0-----------------------------

   but he don?t seem happy there at all         oh no
G--------------------------------------------------------|
D--------------------------------------------------------|
A---0----------------------------------------------------|
E-----------------------------------3--------------0-----|
   
   He?s   so   alone,        he?s got no woman?s shadow
G---------------------------------------------------------|
D---------------------------------------------------------|
A---0------------------------3----------------------------|
E---------------0---------------------------------0-------|

   
   pointing the way--           to love?       we gotta---
G------------------------------------------------------------|
D------------------------------------------------------------|
A---------------3-------------------2------------------------|
E---0--------------------------------------------------------|

   F               D                  F             D
   love^-------- a woman,   we gotta, love^------ a woman
G------------------------------------------------------------|
D------------------------------------------------------------|
A------------------5--------------------------------5--------|
E--1----------------------------------1----------------------|

   F              D                    F            D
   love^-------- a woman,   we gotta-- love-------a woman
G-----------------------------------------------------------|
D-----------------------------------------------------------|
A-----------------5---------------------------------5-------|
E--1-----------------------------------1--------------------|

   F              D                  Em(end cold)              
   love^-------- a woman,   we gotta---
G--------------------------------------------------|
D--------------------------------------------------|
A-----------------5--------------------------------|
E--1----------------------------------0------------|



I believe this is right bass line.
But this should help you get started!

Enjoy!!

^_^


            
            
Suggest correction
Creating personal tab
Creating personal tab
You can edit any tab online and save it as your Personal.

You can edit, replace or remove any tab part or add personal notes – all changes will be seen only by you.

Personal tabs can be accessed anytime from any device, even offline.
Learn more »
Give kudos to tab author, rate the tab!
1 2 3 4 5
comments
print report bad tab
guest
You may want to rate the tab now too:
select rating
Wanna post a correction for this tab? Suggest correction