Oops, an error
Loading. Please wait.

Back In The Village tab

version 1
version 1

Whole song

16,333 views 6 this week
2 commentsread comments
1 2 3 4 5
x 6
add to favorites
×
Save as Personal and add changes to this tab that will be seen only by you. Learn more ›
×
You can save this tab as Personal to edit and correct it or add notes. All changes will be seen only by you. Learn more »
launch autoscroll
font size
0
reset
how to read this tab
guitar tuner
edit
Autoscroll
slow
fast
+/-
esc
set tempo
stop
#----------------------------------PLEASE NOTE---------------------------------#
#This file is the author's own work and represents their interpretation of the #
#song. You may only use this file for private study, scholarship, or research. #
#------------------------------------------------------------------------------##
From: robs@violet.berkeley.edu (Rob Schenk)
Subject: Tab Iron Maiden "Back in the Village"
Date: Tue Jun  7 10:36:55 CDT 1994


Back in the Village

by Iron Maiden

off the album Powerslave

transcribed from Powerslave/Somewhere in Time
Hal Leonard recording

Intro/Main Riff

--------------------------------------------------------------
-----------------5p2---2-4p2---2-----------------5p2---2-2~-
---------------------5--------5-----------------------5------
-----5-----4-------------------------5-----4-----------------
-0-0---0-0---0-0----------------0-0---0-0---0-0-------------
--------------------------------------------------------------

verse

--------------------------------------------------------------
-----------------5p2---2-4p2---2-----------------5p2---2-2~-
---------------------5--------5-----------------------5------
-----5-----4-------------------------5-----4-----------------
-0-0---0-0---0-0----------------0-0---0-0---0-0-------------
--------------------------------------------------------------

--------------------------------
-6---8--------------------------
-5---7--------------------------
-3---5--------------------------play twice
--------------------------------
--------------------------------

White flags shot to ribbons....

-------------------------------------------
-------------------------------------------
-7---3---0---5------7---3---0--2--2---2---
-7---3---5---5---7--7---3---5--2--4---2----
-5---1---2---3---4--5---1---2--0--0---0----
--------------------------------------------

chorus

----------------------------------------------------------------
----------------------------------------------------------------
-5-5-4p0-----5-5-4p0-----5-5-4p0------------------------------
---------3p0----------3p0---------3p0-3p0-----3p0-------------
-------------------------------------------3p0-----3p0---------
----------------------------------------------------------------

------------------------------------------
-5-5-4p0-----5-5-4p0----------------------
---------3p0----------3p0-5-5------------
--------------------------5--5--5--repeat-
--------------------------3--3--5---------
--------------------------------3---------

-------------------------------------------------------------------
-------------------------------------------------------------------
--------------0h5h7-----------------------------0h5h7-------5~~---repeat
---0h2p0h5h7--------0h5p0-----------0h2p0h5h7--------0h5h7-------
-0-------------------------5p0-----0-------------------------------
-------------------------------5p0---------------------------------

interlude

-5--5-----5---5-----8p5------------------------5-----------------------
--8---8p6---8---8p6-----6-6-5p3-6p3-6-5p3-6p3--6-3-6-5p3-6p3-6-5p3--
------------------------------------------------------------------------
------------------------------------------------------------------------
------------------------------------------------------------------------
------------------------------------------------------------------------

-----5------------------------------
-6p3---6-3-8p6-8p5-----8p6-8p5-----
--------------------7-5---------7-6-
------------------------------------
------------------------------------
------------------------------------

ending 2

--------------------------------
-8p6-8p5-----------------------
---------7---------------------
-----------6-------------------
-----------5h7-----------------
--------------------------------

solo rhythm

--------------------------------
--------------------------------
---8-7------7---5---0dive-------
---8-7------7---5---0----------
-0------------------------------
--------------------------------

But still we walk in.....

--------------------------------------------------
--------------------------------------------------
--------------------------------------------------
-9---------------7----------------repeat--then-7--
-7---------------5-----------------------------7--
-0-0-000000000-0--000000000000--------------5--

Outro repeat chorus

ends with

--------------------------------
-3-------------------------------
-2-------------------------------
-0-------------------------------
--------------------------------
--------------------------------






            
            
Suggest correction
Creating personal tab
Creating personal tab
You can edit any tab online and save it as your Personal.

You can edit, replace or remove any tab part or add personal notes – all changes will be seen only by you.

Personal tabs can be accessed anytime from any device, even offline.
Learn more »
comments
print report bad tab
2 comments total.
0 reply
SaschaDozz 10 Aug 31, 2005 08:00 PM

Ok its fast, not easy, but when i play and also fast, its doesnt work, bur i must try, maybe work....good job

+1 reply
L.A.H93 10 Sep 12, 2008 06:14 AM

A:--------0-0--10--0-0--9----------

instead of

D:-----5-----4------
A:-0-0---0-0---0-0--

guest
Wanna post a correction for this tab? Suggest correction