Oops, an error
Loading. Please wait.

Caught Somewhere In Time tab

version 5
version 5

Interactive

7,220 views 9 this week
no commentswrite comment
1 2 3 4 5
x 3
add to favorites
×
Save as Personal and add changes to this tab that will be seen only by you. Learn more ›
×
You can save this tab as Personal to edit and correct it or add notes. All changes will be seen only by you. Learn more »
launch autoscroll
font size
0
reset
how to read this tab
guitar tuner
backing track
0:00
0:00
edit
Autoscroll
slow
fast
+/-
esc
set tempo
stop
Author
Difficulty
#----------------------------------PLEASE NOTE---------------------------------#
#This file is the author's own work and represents their interpretation of the #
#song. You may only use this file for private study, scholarship, or research. #
#------------------------------------------------------------------------------##

                            CAUGHT SOMEWHERE IN TIME
                           As recorded by Iron Maiden
                     (From the 1986 Album SOMEWHERE IN TIME)

Words and Music by Steve Harris
Transcribed by The Beholder

          Em                    C                   Am                    D
      0 7 9 9 8 7          x 3 2 0 1 0          x 0 2 2 1 0          x x 0 2 3 2

          B5                    B                   E5                   C5
      x 2 4 4 0 2          x 2 4 4 4 2          x 7 9 x x x          x 3 5 x x x

          D5                   A5                   F5                   G5
      x 5 7 x x x          x 0 7 9 x x          x x 3 5 6 x          x x 5 7 8 x

         E5II                A5open             B5(type 2)             F5VIII
      x x 2 4 x x          x 0 2 x x x          x 2 4 x x x         x 8 10 x x x

          G5X                 G5III                 Bb5                 Dsus4
     x 10 12 x x x         3 5 x x x x          x 1 3 x x x          x x 0 2 3 3

      B5(type 3)
      x 2 4 x x x

Gtr I (E A D G B E) - 'Murray'
Gtr II (E A D G B E) - 'Smith'
Gtr III (E A D G B E) - 'Sinth'

 Intro
  Q=105
  Em                   C
 4/4
  Gtr I
             ~~                      ~~~~~~~
  Q   Q      Q   E E    E.  S  S  S  E  +Q.   E
|--------------------|--------------------------|
|----10b12--10---7---|--8--10--8--7--8--(8)-----|
|--------------------|--------------------------|
|--------------------|--------------------------|
|--------------------|--------------------------|
|--------------------|--------------------------|
|
| Gtr II
|            ~~                      ~~~~~~~
| Q   Q      Q   E E    E.  S  S  S  E  +Q.   E
|--------------------|--------------------------|
|----15b17--15--12---|-13--15-13-12-13-(13)-----|
|--------------------|--------------------------|
|--------------------|--------------------------|
|--------------------|--------------------------|
|--------------------|--------------------------|
|
| Gtr III
| W                     W
|-7------------------|--0-----------------------|
|-8------------------|--1-----------------------|
|-9------------------|--0-----------------------|
|-9------------------|--2-----------------------|
|-7------------------|--3-----------------------|
|-0------------------|--------------------------|


  Em                   C            Am
             ~~                      ~~~~~~~~
  Q   Q      Q   E E    E.  S  S  S  E   +Q.      E
|--------------------|------------------------------|
|----10b12--10---7---|--8--10--8--7-----------------|
|--------------------|---------------9---(9)--------|
|--------------------|------------------------------|
|--------------------|------------------------------|
|--------------------|------------------------------|
|
|            ~~                      ~~~~~~~~
| Q   Q      Q   E E    E.  S  S  S  E   +Q.      E
|--------------------|------------------------------|
|----15b17--15--12---|-13--15-13-12-----------------|
|--------------------|--------------14--(14)--------|
|--------------------|------------------------------|
|--------------------|------------------------------|
|--------------------|------------------------------|
|
| W                     Q      E     Q.       +E  E
|-7------------------|--0------------0--------(0)---|
|-8------------------|--1------------1--------(1)---|
|-9------------------|--0------------2--------(2)---|
|-9------------------|--2------------2--------(2)---|
|-7------------------|--3------------0--------(0)---|
|-0------------------|------------------------------|


  Em                   C
             ~~                      ~~~~~~~
  Q   Q      Q   E E    E.  S  S  S  E  +Q.   E
|--------------------|--------------------------|
|----10b12--10---7---|--8--10--8--7--8--(8)-----|
|--------------------|--------------------------|
|--------------------|--------------------------|
|--------------------|--------------------------|
|--------------------|--------------------------|
|
|            ~~                      ~~~~~~~
| Q   Q      Q   E E    E.  S  S  S  E  +Q.   E
|--------------------|--------------------------|
|----15b17--15--12---|-13--15-13-12-13-(13)-----|
|--------------------|--------------------------|
|--------------------|--------------------------|
|--------------------|--------------------------|
|--------------------|--------------------------|
|
| W                     W
|-7------------------|--0-----------------------|
|-8------------------|--1-----------------------|
|-9------------------|--0-----------------------|
|-9------------------|--2-----------------------|
|-7------------------|--3-----------------------|
|-0------------------|--------------------------|


  D                            B5    C    D
                                ~~
   H        E Q   S      +S     H     E E  Q
|----------------------------|-------------------|
|-10b12----10----10pb12r(10)-|--7-----8---10\----|
|----------------------------|-------------------|
|----------------------------|-------------------|
|----------------------------|-------------------|
|----------------------------|-------------------|
|
|                               ~~
|  H        E Q   S      +S     H     E E  Q
|----------------------------|-------------------|
|-15b17----15----15pb17r(15)-|-12----13---15\----|
|----------------------------|-------------------|
|----------------------------|-------------------|
|----------------------------|-------------------|
|----------------------------|-------------------|
|
|  W                            H     Q    Q
|--2-------------------------|--2-----0----2-----|
|--3-------------------------|--0-----1----3-----|
|--2-------------------------|--4-----0----2-----|
|--0-------------------------|--4-----2----0-----|
|----------------------------|--2-----3----------|
|----------------------------|-------------------|


     Q=124
     Em                C
             ~~                      ~~~~~~~
  Q   Q      Q   E E    E.  S  S  S  E  +Q.   E
|--------------------|--------------------------|
|----10b12--10---7---|--8--10--8--7--8--(8)-----|
|--------------------|--------------------------|
|--------------------|--------------------------|
|--------------------|--------------------------|
|--------------------|--------------------------|
|
|            ~~                      ~~~~~~~
| Q   Q      Q   E E    E.  S  S  S  E  +Q.   E
|--------------------|--------------------------|
|----15b17--15--12---|-13--15-13-12-13-(13)-----|
|--------------------|--------------------------|
|--------------------|--------------------------|
|--------------------|--------------------------|
|--------------------|--------------------------|


  Em                   C               Am
             ~~                      ~~~~~~~
  Q   Q      Q   E E    E.  S  S  S  E  +E   E  +Q
|--------------------|---------------------------------|
|----10b12--10---7---|--8--10--8--7--------------------|
|--------------------|---------------9--(9)--7--(7)----|
|--------------------|---------------------------------|
|--------------------|---------------------------------|
|--------------------|---------------------------------|
|
|            ~~                      ~~~~~~~
| Q   Q      Q   E E    E.  S  S  S  E  +E   E  +Q
|--------------------|---------------------------------|
|----15b17--15--12---|-13--15-13-12--------------------|
|--------------------|--------------14-(14)-14-(14)----|
|--------------------|---------------------------------|
|--------------------|---------------------------------|
|--------------------|---------------------------------|


     Em                C
             ~~                      ~~~~~~~
  Q   Q      Q   E E    E.  S  S  S  E  +Q.   E
|--------------------|--------------------------|
|----10b12--10---7---|--8--10--8--7--8--(8)-----|
|--------------------|--------------------------|
|--------------------|--------------------------|
|--------------------|--------------------------|
|--------------------|--------------------------|
|
|            ~~                      ~~~~~~~
| Q   Q      Q   E E    E.  S  S  S  E  +Q.   E
|--------------------|--------------------------|
|----15b17--15--12---|-13--15-13-12-13-(13)-----|
|--------------------|--------------------------|
|--------------------|--------------------------|
|--------------------|--------------------------|
|--------------------|--------------------------|


  D                            B5    C    D
                                ~~
   H        E Q   S      +S     H     E E  Q
|----------------------------|-------------------|
|-10b12----10----10pb12r(10)-|--7-----8---10\----|
|----------------------------|-------------------|
|----------------------------|-------------------|
|----------------------------|-------------------|
|----------------------------|-------------------|
|
|                               ~~
|  H        E Q   S      +S     H     E E  Q
|----------------------------|-------------------|
|-15b17----15----15pb17r(15)-|-12----13---15\----|
|----------------------------|-------------------|
|----------------------------|-------------------|
|----------------------------|-------------------|
|----------------------------|-------------------|


     Em                C
             ~~                      ~~~~~~~
  Q   Q      Q   E E    E.  S  S  S  E  +H
|----17b19--17--14---|-15--17-15-14-15-(15)----|
|--------------------|-------------------------|
|--------------------|-------------------------|
|--------------------|-------------------------|
|--------------------|-------------------------|
|--------------------|-------------------------|
|
|            ~~                      ~~~~~~~
| Q   Q      Q   E E    E.  S  S  S  E  +H
|--------------------|-------------------------|
|----15b17--15--12---|-13--15-13-12-13-(13)----|
|--------------------|-------------------------|
|--------------------|-------------------------|
|--------------------|-------------------------|
|--------------------|-------------------------|


  Em                   C            Am
             ~~
  Q   Q      Q   E E    E.  S  S  S  E  +E   Q.
|----17b19--17--14---|-15--17-15-14----------------|
|--------------------|--------------17-(17)-15-----|
|--------------------|-----------------------------|
|--------------------|-----------------------------|
|--------------------|-----------------------------|
|--------------------|-----------------------------|
|
|            ~~
| Q   Q      Q   E E    E.  S  S  S  E  +E   Q.
|--------------------|-----------------------------|
|----15b17--15--12---|-13--15-13-12----------------|
|--------------------|--------------14-(14)-12-----|
|--------------------|-----------------------------|
|--------------------|-----------------------------|
|--------------------|-----------------------------|


     Em                C
             ~~                      ~~~~~~~
  Q   Q      Q   E E    E.  S  S  S  E  +H
|----17b19--17--14---|-15--17-15-14-15-(15)----|
|--------------------|-------------------------|
|--------------------|-------------------------|
|--------------------|-------------------------|
|--------------------|-------------------------|
|--------------------|-------------------------|
|
|            ~~                      ~~~~~~~
| Q   Q      Q   E E    E.  S  S  S  E  +H
|--------------------|-------------------------|
|----15b17--15--12---|-13--15-13-12-13-(13)----|
|--------------------|-------------------------|
|--------------------|-------------------------|
|--------------------|-------------------------|
|--------------------|-------------------------|


  D                            B5    C    D
                                ~~
   H        E Q   S      +S     H     E E  Q
|-17b19----17----17pb19r(17)-|-14----15---17\----|
|----------------------------|-------------------|
|----------------------------|-------------------|
|----------------------------|-------------------|
|----------------------------|-------------------|
|----------------------------|-------------------|
|
|                               ~~
|  H        E Q   S      +S     H     E E  Q
|----------------------------|-------------------|
|-15b17----15----15pb17r(15)-|-12----13---15\----|
|----------------------------|-------------------|
|----------------------------|-------------------|
|----------------------------|-------------------|
|----------------------------|-------------------|


    Q=171
    Em
     E  E  E  E E  E E  E   E  E E  E E  E  E  E
||------------------------|----------------------|
||o-12--------------------|----------------------|
||-----14-12-12---11---12-|---14---12---14-12-11-|
||------------------------|----------------------|
||o-----------------------|----------------------|
||------------------------|----------------------|
|
|    E  E  E  E E  E E  E   E  E E  E E  E  E  E
||------------------------|----------------------|
||o-17-15-----------------|----------------------|
||--------16-16---14---16-|---17---16---17-16-14-|
||------------------------|----------------------|
||o-----------------------|----------------------|
||------------------------|----------------------|


  C                               D    Em
            ~~~~~~~~~~~~~~~~~
   E  E  E  E  +H        +H.      Q     E  E  E  E E  E E  E
|---------------------|--------------|-------------------------|
|---------------------|--------------|-12----------------------|
|-12p11---------------|--------------|----14-12-12---11---12---|
|-------14-14-(14)----|-(14)---------|-------------------------|
|---------------------|--------------|-------------------------|
|---------------------|--------------|-------------------------|
|
|           ~~~~~~~~~~~~~~~~~
|  E  E  E  E  +H        +H.      Q     E  E  E  E E  E E  E
|---------------------|--------------|-------------------------|
|---------------------|--------------|-17-15-------------------|
|-16p14---------------|--------------|-------16-16---14---16---|
|-------17-17-(17)----|-(17)---------|-------------------------|
|---------------------|--------------|-------------------------|
|---------------------|--------------|-------------------------|


                         1.
                         D
                          ~~~~~~~~~~~~~
  E  E E  E E  E  E  E    H.       +E   S  S
|----------------------|---------------------|
|----------------------|---------------------|
|---14---12---14-12-11-|-12-------(12)-11h12p|
|----------------------|---------------------|
|----------------------|---------------------|
|----------------------|---------------------|
|
|                         ~~~~~~~~~~~~~
| E  E E  E E  E  E  E    H.       +E   S  S
|----------------------|---------------------|
|----------------------|---------------------|
|---17---16---17-16-14-|-16-------(16)-14h16p|
|----------------------|---------------------|
|----------------------|---------------------|
|----------------------|---------------------|


                2.
  B             D                    B
   ~~                                  ~~~~
   W             H..         E        +W
|------------||--------------------|---------|
|-----------o||-16b17-------16pb17r|=(16)----|
|-11---------||--------------------|---------|
|------------||--------------------|---------|
|-----------o||--------------------|---------|
|------------||--------------------|---------|
|
|  ~~                                  ~~~~
|  W             H..         E         W
|------------||-14b15-------14pb15r|==14-----|
|-----------o||--------------------|---------|
|-14---------||--------------------|---------|
|------------||--------------------|---------|
|-----------o||--------------------|---------|
|------------||--------------------|---------|


   Verse
    E5
    Gtrs I, II
    PM----------------------------------------|
    E S S E S S E S S E S S   E S S E S S E S S Q
||--------------------------|-----------------------|
||o-------------------------|-----------------------|
||--------------------------|-----------------------|
||--9-9-9-9-9-9-9-9-9-9-9-9-|-9-9-9-9-9-9-9-9-9-9\--|
||o-7-7-7-7-7-7-7-7-7-7-7-7-|-7-7-7-7-7-7-7-7-7-7\--|
||--------------------------|-----------------------|


  C5                                        D5
  PM--------------------------------------|
  E S S E S S E S S E S S   E S S E S S E E Q
|-------------------------|---------------------|
|-------------------------|---------------------|
|-------------------------|---------------------|
|-5-5-5-5-5-5-5-5-5-5-5-5-|-5-5-5-5-5-5-5S7-7---|
|-3-3-3-3-3-3-3-3-3-3-3-3-|-3-3-3-3-3-3-3S5-5---|
|-------------------------|---------------------|


  E5
  Gtrs I, II
  PM----------------------------------------|
  E S S E S S E S S E S S   E S S E S S E S S Q
|-------------------------|-----------------------|
|-------------------------|-----------------------|
|-------------------------|-----------------------|
|-9-9-9-9-9-9-9-9-9-9-9-9-|-9-9-9-9-9-9-9-9-9-9\--|
|-7-7-7-7-7-7-7-7-7-7-7-7-|-7-7-7-7-7-7-7-7-7-7\--|
|-------------------------|-----------------------|


  C5                                        D5
  PM--------------------------------------|
  E S S E S S E S S E S S   E S S E S S E E Q
|-------------------------|----------------------|
|-------------------------|----------------------|
|-------------------------|----------------------|
|-5-5-5-5-5-5-5-5-5-5-5-5-|-5-5-5-5-5-5-5S7-7----|
|-3-3-3-3-3-3-3-3-3-3-3-3-|-3-3-3-3-3-3-3S5-5----|
|-------------------------|----------------------|


 Pre-Chorus
  A5                         F5            G5
  H..       S S   W          H..       E   H    q  q
|---------------|----------|-------------|------------|
|---------------|----------|-6-----------|-8----------|
|-9---------9-9-|-9--------|-5-----------|-7----4--7--|
|-7---------7-7-|-7--------|-3---------0-|-5----2--5--|
|-0---------0-0-|-0--------|-------------|------------|
|---------------|----------|-------------|------------|


  A5                         F5            G5   E5IG5
  H..       S S   W          H..       E   H    q  q
|---------------|----------|-------------|--------------||
|---------------|----------|-6-----------|-8-------8---o||
|-9---------9-9-|-9--------|-5-----------|-7----4--7----||
|-7---------7-7-|-7--------|-3---------0-|-5----2--5----||
|-0---------0-0-|-0--------|-------------|-------------o||
|---------------|----------|-------------|--------------||


 Verse
  E5
  PM-------------------------------------------------
  E S S E S S E S S E S S   E S S E S S E S S E S S
|-------------------------|-------------------------|
|-------------------------|-------------------------|
|-------------------------|-------------------------|
|-9-9-9-9-9-9-9-9-9-9-9-9-|-9-9-9-9-9-9-9-9-9-9-9-9-|
|-7-7-7-7-7-7-7-7-7-7-7-7-|-7-7-7-7-7-7-7-7-7-7-7-7-|
|-------------------------|-------------------------|


 -------------------------------------|
  E S S E S S E S S E S S   E S S E S S E E E E
|-------------------------|----------------------|
|-------------------------|----------------------|
|-------------------------|----------------------|
|-9-9-9-9-9-9-9-9-9-9-9-9-|-9-9-9-9-9-9-7-9-7-9--|
|-7-7-7-7-7-7-7-7-7-7-7-7-|-7-7-7-7-7-7-7-7-7-7--|
|-------------------------|----------------------|


  D
                          PM------------------------------|
  W          +W           E S S E S S E S S E S S   E S S E E Q  E E
|----------|------------|-------------------------|-------------------|
|-7--------|-(7)--------|-------------------------|-------------------|
|-7--------|-(7)--------|-------------------------|-------------------|
|-7--------|-(7)--------|-9-9-9-9-9-9-9-9-9-9-9-9-|-9-9-9-9-7-9--7----|
|-5--------|-(5)--------|-7-7-7-7-7-7-7-7-7-7-7-7-|-7-7-7-7-7-7--7-x--|
|----------|------------|-------------------------|-------------------|


   Interlude 1
    C
          |-3-|                |-3-|
    Q  Q  E E E E E   +E  E Q  E E E Q
||------------------|--------------------||
||o-----------------|-------------------o||
||------------------|--------------------||
||-----5--4h5p4-----|-------5--4h5p4-----||
||o-3-----------5-3-|-(3)-3----------5--o||
||------------------|--------------------||


      Am
            |-3-|                |-3-|
      Q  Q  E E E E E   +E  E Q  E E E Q
|-||------------------|--------------------||
|-||o-----------------|-------------------o||
|-||------------------|--------------------||
|-||-----5--4h5p4-----|-------5--4h5p4-----||
|-||o-0-----------5-0-|-(0)-0----------5--o||
|-||------------------|--------------------||


    C
    Gtr I
          |-3-|                |-3-|
    Q  Q  E E E E E   +E  E Q  E E E Q
||------------------|--------------------||
||o-----------------|-------------------o||
||-----4--2h4p2-----|-------4--2h4p2-----||
||--2-----------5-2-|-(2)-2----------5---||
||o-----------------|-------------------o||
||------------------|--------------------||
|
|   Gtr II
|         |-3-|                |-3-|
|   Q  Q  E E E E E   +E  E Q  E E E Q
||------------------|--------------------||
||o-----------------|-------------------o||
||------------------|--------------------||
||-----5--4h5p4-----|-------5--4h5p4-----||
||o-3-----------5-3-|-(3)-3----------5--o||
||------------------|--------------------||


      Am
            |-3-|                |-3-|
      Q  Q  E E E E E   +E  E Q  E E E Q
|-||------------------|--------------------||
|-||o-----------------|-------------------o||
|-||-----4--2h4p2-----|-------4--2h4p2-----||
|-||--2-----------5-2-|-(2)-2----------5---||
|-||o-----------------|-------------------o||
|-||------------------|--------------------||
|
|           |-3-|                |-3-|
|     Q  Q  E E E E E   +E  E Q  E E E Q
|-||------------------|--------------------||
|-||o-----------------|-------------------o||
|-||------------------|--------------------||
|-||-----5--4h5p4-----|-------5--4h5p4-----||
|-||o-3-----------5-3-|-(3)-3----------5--o||
|-||------------------|--------------------||


   Chorus
    E5                            C5                           D5
                PM   PM|
    W           E  E E E H        Q.   E  H       Q.    E  Q   Q
||-----------|------------------|--------------|-------------------|
||o----------|------------------|--------------|-------------------|
||-----------|-----9-----9------|-5S==12-12----|-11S===14-14\--7---|
||-----------|-----9-----9------|--------------|-------------------|
||o-7--------|-----7-----7------|-3S==10-10----|--9S===12-12\--5---|
||--0--------|--0----0-0--------|--------------|-------------------|
|
|   W          +H.          E E   W              +H.           Q
||-----------|------------------|--------------|-------------------|
||o----------|------------------|--------------|-------------------|
||-----------|------------------|--------------|-------------------|
||--9--------|-(9)--------------|-5------------|-(5)-----------7---|
||o-7--------|-(7)----------x-x-|-3------------|-(3)-----------5---|
||-----------|------------------|--------------|-------------------|


  E5                        C5              A5open
                                            ~~
  W          +W              H.       Q     W
|----------|--------------|---------------|------------|
|----------|--------------|---------------|------------|
|-9--------|-(9)----------|-12-------12\--|-9----------|
|----------|--------------|---------------|------------|
|-7--------|-(7)----------|-10-------10\--|-7----------|
|----------|--------------|---------------|------------|
|
| W          +H.      E E    H.       Q     H.      Q
|----------|--------------|---------------|------------|
|----------|--------------|---------------|------------|
|----------|--------------|---------------|------------|
|-9--------|-(9)----------|--5--------5---|-2-------2--|
|-7--------|-(7)------x-x-|--3--------3---|-0-------0--|
|----------|--------------|---------------|------------|


  E5                          C5
              PM   PM|
  W           E  E E E H      Q.   E  H       Q.    E  Q.   E
|----------|----------------|--------------|------------------|
|----------|----------------|--------------|------------------|
|----------|-----9-----9----|-5S==12-12----|-11S===14-14\---9-|
|----------|-----9-----9----|--------------|------------------|
|-7--------|-----7-----7----|-3S==10-10----|--9S===12-12\---7-|
|-0--------|--0----0-0------|--------------|------------------|
|
| W          +W               W              +W
|----------|----------------|--------------|------------------|
|----------|----------------|--------------|------------------|
|----------|----------------|--------------|------------------|
|-9--------|-(9)------------|-5------------|-(5)--------------|
|-7--------|-(7)------------|-3------------|-(3)--------------|
|----------|----------------|--------------|------------------|


  D5                            B5(type 2)            C5      D5     E5
  ~
  W           H      Q   E  E    H      +E   Q    E    +W
|----------|------------------|---------------------|-------------------||
|----------|------------------|---------------------|------------------o||
|-7--------|-11-----12--12S16-|-16-----(16)S19---19-|-(19)--------------||
|----------|------------------|---------------------|-------------------||
|-5--------|--9-----10--10S14-|-14-----(14)S17---17-|-(17)-------------o||
|----------|------------------|---------------------|-------------------||
|
| W          +H.         Q       H.            E  E     Q   E E Q  E E
|----------|------------------|---------------------|-------------------||
|----------|------------------|---------------------|------------------o||
|----------|------------------|---------------------|-------------------||
|-7--------|-(7)---------7S===|==4-------------4--5-|---5---5S7-7--7-9--||
|-5--------|-(5)---------5S===|==2-------------2--3-|---3---3S5-5--5-7-o||
|----------|------------------|---------------------|-------------------||


   Interlude 2
    Em
    Gtrs I, II
    PM----|   PM----------|     PM----|   PM------|
    E S S E E S S E S S S S   E S S S S E S S S S E E
||--------------------------|-------------------------|
||o-------------------------|-------------------------|
||--------------------------|-------------------------|
||----------5---------------|-7---------5-------------|
||o-7-7-7-7---7-7-7-7-7-7-7-|---7-7-7-7---7-7-7-7-7-5-|
||--------------------------|-------------------------|


  PM----|   PM----------|
  E S S E E S S E S S S S   E S S E E E E E E
|-------------------------|---------------------||
|-------------------------|--------------------o||
|-------------------------|---------------------||
|---------5---------------|-7-7-7-7-7-7-5-4-----||
|-7-7-7-7---7-7-7-7-7-7-7-|-----------------5--o||
|-------------------------|---------------------||


 Guitar Solo 1
  D5 F5VIII         E5         F5VIII         E5          F5VIII   E5         G5X
  Gtr I
      |---3----|             |------3-------|                               |----3-----|
   E  S  S     S  E  E    a  Q     Q        Q        S  S  S  S  E  E    a  Q     Q    Q
|-------------------------------------------------|--------------------------------------|
|-15-13h15p===13----13----------------------------|--------------------------------------|
|----------------14------14-16----14-------12-----|-14p12h14p12S10-12---10-12----10----9-|
|-------------------------------------------------|--------------------------------------|
|-------------------------------------------------|--------------------------------------|
|-------------------------------------------------|--------------------------------------|
|
| Gtr II
|  PM----------------------------------------------------------------------|
|  E  S     S     E  S S     E  S     S  E    S S    E     S  S  E  S S     E  E     Q
|-------------------------------------------------|--------------------------------------|
|-------------------------------------------------|--------------------------------------|
|-------------------------------------------------|--------------------------------------|
|--7-10----10----10--9-9-----9-10----10-10----9-9-|--9----10-10-10--9-9-----9-12----12---|
|--5--8-----8-----8--7-7-----7--8-----8--8----7-7-|--7-----8--8--8--7-7-----7-10----10---|
|-------------------------------------------------|--------------------------------------|


  D5   F5VIII                G5X            E5         F5VIII   E5    G5X
                                                   ~~~~
                          |-------3-------|
   S S  S  S  E  a  E    +Q      Q        Q        H..                      E
|-----------------------------------------------|-----------------------------|
|-----------------------------------------------|-----------------------------|
|-10p9h10p=9------------------------------------|---------------------------9-|
|------------12-12-14---(14)----12-------10-----|-12--------------------------|
|-----------------------------------------------|-----------------------------|
|-----------------------------------------------|-----------------------------|
|
|  PM---------------------------------------------------------------|
|  E    S  S  E     S S   E   S     S  E    S S    E    S  S  E S S E  E  Q
|-----------------------------------------------|-----------------------------|
|-----------------------------------------------|-----------------------------|
|-----------------------------------------------|-----------------------------|
|--7---10-10-10-----9-9---9--10----10-10----9-9-|--9---10-10-10-9-9-9-12-12---|
|--5----8--8--8-----7-7---7---8-----8--8----7-7-|--7----8--8--8-7-7-7-10-10---|
|-----------------------------------------------|-----------------------------|


  D5 F5VIII   E5      F5VIII   E5             F5VIII     E5    G5X
                                           ~~~~~~~~
   E  E     E  S S  E  E     E  E         +E   +H               S  S  S  S S  S
|--------------------------------------|----------------------------------------|
|--------------------------------------|----------------------------------------|
|-10--------9h10p9-----9----10-12b14r==|=(12)-(12)-------------12p10-12p10S9h10-|
|----12------------12------------------|----------------------------------------|
|--------------------------------------|----------------------------------------|
|--------------------------------------|----------------------------------------|
|
|  PM--------------------------------------------------------|
|  E  S  S  E  S S  E  S  S  E  S    S     E    S   S  E S S E  E     Q
|--------------------------------------|----------------------------------------|
|--------------------------------------|----------------------------------------|
|--------------------------------------|----------------------------------------|
|--7-10-10-10--9-9--9-10-10-10--9----9-|---9---10--10-10-9-9-9-12----12---------|
|--5--8--8--8--7-7--7--8--8--8--7----7-|---7----8---8--8-7-7-7-10----10---------|
|--------------------------------------|----------------------------------------|


  D5   F5VIII     E5        F5VIII     E5        F5VIII     E5       G5X
                                             |--3---|
  S  S  S  S  S S S  S S  S  S  S  S S S S   E E    E     E E   a Q.       E
|------------------------------------------|-----------------------------------|
|------------------------------------------|-----------------------------------|
|-9h10p=9----------------------------------|-----------------------------------|
|---------12p10-9-7-10p9-10p=9p=7--9p7p5-7-|-5h7p===5--------------------------|
|------------------------------------------|--------------8-7---3-5------------|
|------------------------------------------|-----------------------------------|
|
| PM--------------------------------------------------------------|
| E     S  S  E   S  S E     S  S  E   S S   E    S    S  E S S   E   E  Q
|------------------------------------------|-----------------------------------|
|------------------------------------------|-----------------------------------|
|------------------------------------------|-----------------------------------|
|-7----10-10-10---9--9-9----10-10-10---9-9-|-9---10---10-10-9-9---9--12-12-----|
|-5-----8--8--8---7--7-7-----8--8--8---7-7-|-7----8----8--8-7-7---7--10-10-----|
|------------------------------------------|-----------------------------------|


  G5III BbA5open       Bb5 A5G5C5I
   \5            \5
   H.            Q     +W
|--------------------|------------------|
|--------------------|------------------|
|-<3>------------3---|-(3)--------------|
|--------------------|------------------|
|--------------------|------------------|
|--------------------|------------------|
|
|  E  E E E +H          E  E E E +H
|--------------------|------------------|
|--------------------|------------------|
|--------------------|------------------|
|-------3-2-(2)------|--3--2---5-(5)----|
|--5--5-1-0-(0)------|--1--0-5-3-(3)----|
|--3--3--------------|-------3----------|


    G5III Bb5 A5open              BbA5G5IIC5
               |-3--|     |-3-|
  a H          S  S S E E S S S   E E S S S S +Q   E E
|-------------------------------|------------------------|
|-------------------------------|------------------------|
|-0-5b7--------3h=5p3---3-2h3p2-|-3----------------------|
|---------------------5---------|---5-3h5p3S2-(2)S=7-----|
|-------------------------------|--------------------x---|
|-------------------------------|------------------------|
|
|   E   E E E +H                  E E E   E   +H
|-------------------------------|------------------------|
|-------------------------------|------------------------|
|-------------------------------|------------------------|
|---------3-2-(2)---------------|-3-2-----5---(5)--------|
|---5---5-1-0-(0)---------------|-1-0-5---3---(3)--------|
|---3---3-----------------------|-----3------------------|


  D5F5VIII   E5    F5VIII   E5        F5VIII         E5     G5X
  PM------|
                                    |------3-------|      |-----3-----|
  E  E     E E   E  E     E  E      Q     Q        Q      Q     Q     Q
|--------------------------------|-------12-------13-----------12----13-|
|------------------------10-13---|-15--------------------15-------------|
|------------7---9-12------------|--------------------------------------|
|-7--9----10---------------------|--------------------------------------|
|--------------------------------|--------------------------------------|
|--------------------------------|--------------------------------------|
|
| PM-----------------------------------------------------|
| E  S  S  E S S E  S  S  E  S S    E  S     S  E    S S  E  E     Q
|--------------------------------|--------------------------------------|
|--------------------------------|--------------------------------------|
|--------------------------------|--------------------------------------|
|-7-10-10-10-9-9-9-10-10-10--9-9-|--9-10----10-10----9-9--9-12----12----|
|-5--8--8--8-7-7-7--8--8--8--7-7-|--7--8-----8--8----7-7--7-10----10----|
|--------------------------------|--------------------------------------|


  D5     F5VIII   E5       F5VIII     E5          F5VIII   E5    G5X
                                       ~~~~~~~~~~~
   H                   +E   +E      E  E      +H.                    S  S  S  S
|-15b17===============(15)r(15)----13-15---|-(15)-------------------------12-15---|
|------------------------------------------|---------------------------13---------|
|------------------------------------------|------------------------14------------|
|------------------------------------------|--------------------------------------|
|------------------------------------------|--------------------------------------|
|------------------------------------------|--------------------------------------|
|
|  PM----------------------------------------------------------|
|  E      S  S  E S S   E    S   S  E  S S     E   S  S  E S S E  E  Q
|------------------------------------------|--------------------------------------|
|------------------------------------------|--------------------------------------|
|------------------------------------------|--------------------------------------|
|--7-----10-10-10-9-9---9---10--10-10--9-9-|---9--10-10-10-9-9-9-12-12------------|
|--5------8--8--8-7-7---7----8---8--8--7-7-|---7---8--8--8-7-7-7-10-10------------|
|------------------------------------------|--------------------------------------|


  D5    F5VIII         E5             F5VIII               E5                F5VIII      E5   
               |--3--|        |--------6--------|  |-------5-------|    |---3----| 
   S  S  S  S  S  S  S  S  S  S  S  S  S  S     S  S  S  S    S    S    E  E     E
|-12h13p12----12h13p12----------12h13p12-----------------------------|------------
|----------15----------15-13-15----------15----13-12----12---13---12-|------------
|----------------------------------------------------14--------------|-14S12----
|--------------------------------------------------------------------|------------
|--------------------------------------------------------------------|------------
|--------------------------------------------------------------------|------------

-------------------------------|
-------------------10----13b15-|
10----12-----(12)--------------|
-------------------------------|
-------------------------------|
-------------------------------|
|
|  PM----------------------------------------------------------------------------------------|
|  E     S  S  E        S  S  E        S     S     E       S    S       E     
|--------------------------------------------------------------------|------------
|--------------------------------------------------------------------|------------
|--------------------------------------------------------------------|------------
|--7----10-10-10--------9--9--9-------10----10----10-------9----9----|--9----10---
|--5-----8--8--8--------7--7--7--------8-----8-----8-------7----7----|--7-----8---
|--------------------------------------------------------------------|------------

-------------------------------|
-------------------------------|
-------------------------------|
-10-10-9-9---9--12----12-------|
--8--8-7-7---7--10----10-------|
-------------------------------|


  D5      F5VIII         E5           F5VIII         E5          F5VIII   E5    G5X
                                                   ~~~~~~~~~~~~~~
    |----3----|     |---3---|    |---3----|     |3-|
   +E   E     E     E  E    E    E  E     E     E  Q        +H.                     E  E
|------10------------------------------------------------|--------------------------------------|
|-(13)-------13p===10------10------10-------------10-----|-(10)\-------------------10-13b15r====|
|---------------------12--------12-------12----10-10-----|-(10)\--------------------------------|
|--------------------------------------------------------|--------------------------------------|
|--------------------------------------------------------|--------------------------------------|
|--------------------------------------------------------|--------------------------------------|
|
|   PM------------------------------------------------------------------------|
|   E      S     S  E    S    S  E     S     S  E    S S     E    S  S  E S S E  E  Q
|--------------------------------------------------------|--------------------------------------|
|--------------------------------------------------------|--------------------------------------|
|--------------------------------------------------------|--------------------------------------|
|---7-----10----10-10----9----9--9----10----10-10----9-9-|---9---10-10-10-9-9-9-12-12-----------|
|---5------8-----8--8----7----7--7-----8-----8--8----7-7-|---7----8--8--8-7-7-7-10-10-----------|
|--------------------------------------------------------|--------------------------------------|


  G5III  BbA5open              Bb5      A5openG5III C5
                                \0.5
    ~~~~                                             ~~~~~~~~~~~~~~~~~
                     |--3--|
   +H         E   E  E  E  E    S     S  S  S  S  S  E  +S   +S   +E   E  E
|----------------10-13p10h13-|-10h===13p10h13p10h13-10-(10)-(10)-(10)----15-|
|-(13)-----------------------|----------------------------------------18----|
|----------------------------|----------------------------------------------|
|----------------------------|----------------------------------------------|
|----------------------------|----------------------------------------------|
|----------------------------|----------------------------------------------|
|
|   E  E E E +H                 E        E     E     E  +H
|----------------------------|----------------------------------------------|
|----------------------------|----------------------------------------------|
|----------------------------|----------------------------------------------|
|--------3-2-(2)-------------|--3--------2-----------5--(5)-----------------|
|---5--5-1-0-(0)-------------|--1--------0-----5-----3--(3)-----------------|
|---3--3---------------------|-----------------3----------------------------|


  G5III       Bb5A5open            Bb5A5oG5III C5
                     |-3-|                                |-3-|
   S  S  S  S  E  E  Q   E  E  E    E  E  S  S  S  S  Q   E   Q
|-17p15h17p15----15-----15-------|------------------------------|
|-------------18----18-----18-17-|-15-17-15h17p15----15\--------|
|--------------------------------|----------------17--------/19-|
|--------------------------------|------------------------------|
|--------------------------------|------------------------------|
|--------------------------------|------------------------------|
|
|  E     E     E  E +H              E  E  E     E    +H
|--------------------------------|------------------------------|
|--------------------------------|------------------------------|
|--------------------------------|------------------------------|
|--------------3--2-(2)----------|--3--2--------5----(5)--------|
|--5-----5-----1--0-(0)----------|--1--0--5-----3----(3)--------|
|--3-----3-----------------------|--------3---------------------|


   |------3-------|      |------3-------|                         |------3-------|
   Q     Q        Q      Q     Q        Q        E  S  S  E  E    Q        Q     Q
|---------------------------------------------|-17-18-17----17---20b22----20----18-|
|-17----18--------------17----18-------20-----|----------20------------------------|
|----------------19---------------------------|------------------------------------|
|---------------------------------------------|------------------------------------|
|---------------------------------------------|------------------------------------|
|---------------------------------------------|------------------------------------|
|
|  PM------------------------------------------------------------|
|  E  S     S  E    S S  E  S     S  E    S S    E  S  S  E  S S  E     E     Q
|---------------------------------------------|------------------------------------|
|---------------------------------------------|------------------------------------|
|---------------------------------------------|------------------------------------|
|--7-10----10-10----9-9--9-10----10-10----9-9-|--9-10-10-10--9-9--9----12----12----|
|--5--8-----8--8----7-7--7--8-----8--8----7-7-|--7--8--8--8--7-7--7----10----10----|
|---------------------------------------------|------------------------------------|


                                                            ~~
   |---3----|     |---3---|                    |--3--|
   E  E     E     E  E    E        +Q         +Q     E      W
|-17h18p===17-------17-----------------------------------|----------------------------|
|----------------20------20b22====(20)r======(20)---18---|----------------------------|
|--------------------------------------------------------|-19-------------------------|
|--------------------------------------------------------|----------------------------|
|--------------------------------------------------------|----------------------------|
|--------------------------------------------------------|----------------------------|
|
|  PM----------------------------------------------------------------------|
|  E     S     S  E    S        S   E   S  S   E  S    S    E  S  S  E S S E  E  Q
|--------------------------------------------------------|----------------------------|
|--------------------------------------------------------|----------------------------|
|--------------------------------------------------------|----------------------------|
|--7----10----10-10----9--------9---9--10-10--10--9----9-|--9-10-10-10-9-9-9-12-12----|
|--5-----8-----8--8----7--------7---7---8--8---8--7----7-|--7--8--8--8-7-7-7-10-10----|
|--------------------------------------------------------|----------------------------|


 Guitar Solo 2
  E5                        G5III
   W                          W
|-------------------------|---------------------------|
|-------------------------|---------------------------|
|-------------------------|---------------------------|
|--9----------------------|---------------------------|
|--7----------------------|---5-----------------------|
|-------------------------|---3-----------------------|
|
|                             |----3----|   |--3--|
|  H         +E   E  E  E    +Q    Q    Q   Q  Q  Q
|-------------------------|---------------------------|
|----------------------15-|-(15)-[13]-[12]------------|
|-14b16=====(14)r14-12----|----------------14-12-11---|
|-------------------------|---------------------------|
|-------------------------|---------------------------|
|-------------------------|---------------------------|


  C5                                D5
   W                    +H      +E   E  Q
|---------------------|------------------------|
|---------------------|------------------------|
|---------------------|------------------------|
|--5------------------|-(5)-----(5)--7--7------|
|--3------------------|-(3)-----(3)--5--5------|
|---------------------|------------------------|
|
|                        ~~~
|  |--3--|  |--3--|
|  Q  Q  Q  Q  Q  Q      Q.   E  E   E  E   E
|---------------------|------------------------|
|---------------------|-------------------[17]-|
|---------------------|-------------16-16------|
|-14-12-10------------|------------------------|
|----------14-12-10---|-10----xS14-------------|
|---------------------|------------------------|


  E5                 G5III                                                 Dsus4
   W                   W                                H            +Q.   E
|------------------|---------------------------------|--2------------(2)---3-|
|------------------|---------------------------------|--3------------(3)---3-|
|------------------|---------------------------------|--2------------(2)---2-|
|--9---------------|---------------------------------|--0------------(0)---0-|
|--7---------------|---5-----------------------------|-----------------------|
|------------------|---3-----------------------------|-----------------------|
|
|  ~~~~                                                           ~~~~~~~
|                      |--3---|             |--3---|
|  H..        E       +Q   Q  Q  E  E      +E   E  E    Q   S  S  E  +H
|-19---------19b20-|-(19)-19-17-15-17b19==(17)r17-15-|-17--------------------|
|------------------|---------------------------------|-----15-17-15-(15)-----|
|------------------|---------------------------------|-----------------------|
|------------------|---------------------------------|-----------------------|
|------------------|---------------------------------|-----------------------|
|------------------|---------------------------------|-----------------------|


          D          E5
  +Q   Q  H          W
|-(3)--3--2--------|-------------------------|
|-(3)--3--3--------|-------------------------|
|-(2)--2--2--------|-------------------------|
|-(0)--0--0--------|-9-----------------------|
|------------------|-7-----------------------|
|------------------|-------------------------|
|
|            PM-------------------------------
|            |-3-|   |-3-| |-3-| |-3-| |-3-|
|  H.        E E E   E E E E E E E E E E E E
|------------------|-------------------------|
|------------------|-------------------------|
|------------------|-------------------------|
|------------------|-------4---4-5-4-5-7-5-7-|
|------------5---5-|-7-5-7---7---------------|
|-17\----------7---|-------------------------|


                            C5
  W                         W
|-------------------------|---------------------------|
|-------------------------|---------------------------|
|-------------------------|---------------------------|
|-------------------------|-5-------------------------|
|-5-----------------------|-3-------------------------|
|-3-----------------------|---------------------------|
|
|-----------------------|
| |-3-| |-3-| |-3-| |-3-|   |-3-| |-3-| |-3-| |-3-|
| E E E E E E E E E E E E   E E E E E E E E E E E E
|-------------------------|-------------5---5-7p5-----|
|-------------------5---5-|-7-5-7-8-7-8---8-------8---|
|-4---4-5-4-5-7-5-7---7---|---------------------------|
|---7---------------------|---------------------------|
|-------------------------|---------------------------|
|-------------------------|---------------------------|


                D5     E5
  +H        +E  E Q     W
|--------------------|-------------------------------------------------------------------------|
|--------------------|-------------------------------------------------------------------------|
|--------------------|-------------------------------------------------------------------------|
|-(5)-------(5)-7-7--|--9----------------------------------------------------------------------|
|-(3)-------(3)-5-5--|--7----------------------------------------------------------------------|
|--------------------|-------------------------------------------------------------------------|
|
|  /1.5\
|  ~~~~~~                  T     T     T     T     T     T     T     T     T     T     T     T
|                       |------6-------|  |------6-------|  |------6-------|  |------6-------|
|  H.             Q     S  S  S  S  S  S  S  S  S  S  S  S  S  S  S  S  S  S  S  S  S  S  S  S
|--------------------|-14h15p14h15p14h15p14h15p14h15p14h15p12h15p12h15p12h15p10h15p10h15p10h15p|
|--5-----------------|-------------------------------------------------------------------------|
|--------------------|-------------------------------------------------------------------------|
|--------------------|-------------------------------------------------------------------------|
|--------------------|-------------------------------------------------------------------------|
|--------------------|-------------------------------------------------------------------------|


  G5III
   W
|------------------------------------------------|
|------------------------------------------------|
|------------------------------------------------|
|------------------------------------------------|
|--5---------------------------------------------|
|--3---------------------------------------------|
|
|     T     T    T    T    T    T    T
|  |------6------| |-----6------|      |-3--|
|  S  S  S  S S  S S  S S  S S  S S  S S  Q Q
|-10h15p10h15p8h15p8h15p8h15p8h15p7h15p7---------|
|----------------------------------------10-8----|
|------------------------------------------------|
|------------------------------------------------|
|------------------------------------------------|
|------------------------------------------------|


  D             Dsus4       D            E5
  H     +Q.     E   +Q   Q  H              W
|-2-----(2)-----3-|-(3)--3--2----------|-------------------------------------------------------|
|-3-----(3)-----3-|-(3)--3--3----------|-------------------------------------------------------|
|-2-----(2)-----2-|-(2)--2--2----------|-------------------------------------------------------|
|-0-----(0)-----0-|-(0)--0--0----------|---9---------------------------------------------------|
|-----------------|--------------------|---7---------------------------------------------------|
|-----------------|--------------------|-------------------------------------------------------|
|
|                    ~~~
| |-3-|  |-3--|
| Q Q Q  Q  Q Q      H.        E  E       +S   S  S  S  E     +S   S  S  S  E     +S   S  S  S
|-----------------|--------------------|------12------------------12------------------12-------|
|-7---------------|--------------15b17-|-(15)----15p12-15b17-(15)----15p12-15b17-(15)----15p12-|
|---9-7--9--7-----|--7-----------------|-------------------------------------------------------|
|-------------9---|--------------------|-------------------------------------------------------|
|-----------------|--------------------|-------------------------------------------------------|
|-----------------|--------------------|-------------------------------------------------------|


  G5III
   W
|---------------------------------------------------------|
|---------------------------------------------------------|
|---------------------------------------------------------|
|---------------------------------------------------------|
|--5------------------------------------------------------|
|--3------------------------------------------------------|
|
|  E     +S   S  S  S  E     +S   S  S  S  E     +S   S
|------------12------------------12------------------12---|
|-15b17-(15)----15p12-15b17-(15)----15p12-15b17-(15)------|
|---------------------------------------------------------|
|---------------------------------------------------------|
|---------------------------------------------------------|
|---------------------------------------------------------|


  D
   W
|--2-----------------------------------------|
|--3-----------------------------------------|
|--2-----------------------------------------|
|--0-----------------------------------------|
|--------------------------------------------|
|--------------------------------------------|
|
|  S  S  E     +S   S  S  S  E     +E   E  E
|------------------12------------------12----|
|-15p12-15b17-(15)----15p12-15b17-(15)----15-|
|--------------------------------------------|
|--------------------------------------------|
|--------------------------------------------|
|--------------------------------------------|


  A5open                                   G5III
    W               W                      W
|-----------------|----------------------|-----------------|
|-----------------|----------------------|-----------------|
|-----------------|----------------------|-----------------|
|---2-------------|-9--------------------|-----------------|
|---0-------------|-7--------------------|-5---------------|
|-----------------|----------------------|-3---------------|
|
|   ~~~~      PM    PM-----------|         PM---|     ~~
|  +H.      E S S   E  E E  E  E E  E  E   E  E  E E  H
|-----------------|----------------------|-----------------|
|-(15)------------|----------------------|-----------------|
|-----------------|----------------12-11-|-9---------11----|
|-----------------|--------12-10-9-------|---12-11-9-------|
|-------------7---|-7-10-9---------------|-----------------|
|-----------------|----------------------|-----------------|


  D                         A5open
  W                         W
|-2-----------------------|-----------------|
|-3-----------------------|-----------------|
|-2-----------------------|-----------------|
|-0-----------------------|-2---------------|
|-------------------------|-0---------------|
|-------------------------|-----------------|
|
|                               ~~~~~~
| |-3-| |-3-| |-3-| |-3-|   |-3-|
| E E E E E E E E E E E E   E E E +H     Q
|-------------------------|-----------------|
|-7h8---7-----------------|-----------------|
|-----9---7-9-5h7---5-----|-----------------|
|-----------------9---7-9-|-5-7-4-(4)-------|
|-------------------------|-----------------|
|-------------------------|-----------------|


  B5(type 3)
   PM------------------------------------------------------------------------------
   E        S    S     E        S    S     E        S    S     E        S    S
|---------------------------------------------------------------------------------|
|---------------------------------------------------------------------------------|
|---------------------------------------------------------------------------------|
|--4--------4----4-----4--------4----4-----4--------4----4-----4--------4----4----|
|--2--------2----2-----2--------2----2-----2--------2----2-----2--------2----2----|
|---------------------------------------------------------------------------------|
|
|  |-------6--------|  |-------6--------|  |-------6--------|  |-------6--------|
|  S  S  S  S  S    S  S  S  S  S  S    S  S  S  S  S  S    S  S  S  S  S  S    S
|-14h15p14h15p14h==15p14h15p14h16p14h==16p14h17p14h17p14h==17p14h17p14h17p14h==17-|
|---------------------------------------------------------------------------------|
|---------------------------------------------------------------------------------|
|---------------------------------------------------------------------------------|
|---------------------------------------------------------------------------------|
|---------------------------------------------------------------------------------|


                                                   B5(type 3)
 ------------------------------|                   PM------------------|
   E        S    S     E     S  S  E  E E E    +E  S S E S S E S S E S S
|--------------------------------------------|-----------------------------|
|--------------------------------------------|-----------------------------|
|--------------------------------------------|-----------------------------|
|--4--------4----4-----4-----4--4------------|-----4-4-4-4-4-4-4-4-4-4-4---|
|--2--------2----2-----2-----2--2--2--3-0-2--|-(2)-2-2-2-2-2-2-2-2-2-2-2---|
|--------------------------------------------|-----------------------------|
|
|                                         \4
|  |-------6--------|
|  S  S  S  S  S    S  S  S  S  E.    Q   E    +W
|-14h17p14h15p14h==17-17-15-14---------------|-----------------------------|
|--------------------------------------------|-----------------------------|
|--------------------------------------------|-----------------------------|
|-----------------------------------------4--|-(4)-------------------------|
|-----------------------------------------2--|-(2)-------------------------|
|------------------------------/x----\x------|-----------------------------|


                          B5(type 3)
  PM--------|             PM-----------------------------------------
  E S S E S S  E  E E E   E     S S  E    S  S  E    S  S E     S S
|-----------------------|-------------------------------------------|
|-----------------------|-------------------------------------------|
|-----------------------|-------------------------------------------|
|-4-4-4-4-4-4-----------|-4-----4-4--4----4--4--4----4--4-4-----4-4-|
|-2-2-2-2-2-2--2------3-|-2-----2-2--2----2--2--2----2--2-2-----2-2-|
|-----------------0-0---|-------------------------------------------|
|
|                               T    T          T    T
| H           +E  E E E   S  S  S S  S  S S  S  S S  S  S S  S  S S
|-----------------------|-------------------------------------------|
|-----------------------|-0h10h12p0h10h12p0h10h12p0h10h12p0h10h12p0h|
|-----------------------|-------------------------------------------|
|-4-----------(4)-3-2---|-------------------------------------------|
|-2-----------(2)-----3-|-------------------------------------------|
|-----------------------|-------------------------------------------|


 --------------------|
   E    S  S  E    S  S E     E    E    E
|--------------------------------------------|
|--------------------------------------------|
|--------------------------------------------|
|--4----4--4--4----4--4----------------------|
|--2----2--2--2----2--2-2-----3----0----2----|
|--------------------------------------------|
|
|     T       T       T       T       T
|  S  S S  S  S S  S  S S  S  S S  S  S S S
|--------------------------------------------|
|-10h12p0h10h12p0h10h12p0h10h12p0h10h12p0h9h=|
|--------------------------------------------|
|--------------------------------------------|
|--------------------------------------------|
|--------------------------------------------|


       B5(type 3)
       PM----------------------------|
  +E   S  S E    S S E    S S  E   S  S
|---------------------------------------|
|---------------------------------------|
|---------------------------------------|
|------4--4-4----4-4-4----4-4--4---4--4-|
|-(2)--2--2-2----2-2-2----2-2--2---2--2-|
|---------------------------------------|
|
|  T      T      T      T      T      T
|  S S S  S S S  S S S  S S S  S S S  S
|---------------------------------------|
|-12p0h8h12p0h7h12p0h6h12p0h5h12p0h4h12p|
|---------------------------------------|
|---------------------------------------|
|---------------------------------------|
|---------------------------------------|


                                2/4
  E    E   E    E    E  E E E     E  E E E
|------------------------------|-----------|
|------------------------------|-----------|
|------------------------------|-----------|
|------------------------------|-----------|
|-2-------------3----2--3-2-0--|--5--3-----|
|------0---0-------------------|-------3---|
|
|                           \7
|      T      T
| S S  S S S  S S  S Q.     E    +H
|------------------------------|-----------|
|-0h3h12p0h3h12p0h12p0---------|-----------|
|---------------------------0--|-(0)-------|
|------------------------------|-----------|
|------------------------------|-----------|
|------------------------------|-----------|


   4/4
     E  E  E  E E  E E  E   E  E E  E E  E  E  E
||------------------------|----------------------|
||o-12--------------------|----------------------|
||-----14-12-12---11---12-|---14---12---14-12-11-|
||------------------------|----------------------|
||o-----------------------|----------------------|
||------------------------|----------------------|
|
|    E  E  E  E E  E E  E   E  E E  E E  E  E  E
||------------------------|----------------------|
||o-17-15-----------------|----------------------|
||--------16-16---14---16-|---17---16---17-16-14-|
||------------------------|----------------------|
||o-----------------------|----------------------|
||------------------------|----------------------|


            ~~~~~~~~~~~~~~~~~
   E  E  E  E  +H        +H.      Q     E  E  E  E E  E E  E
|---------------------|--------------|-----------------------|
|---------------------|--------------|-12--------------------|
|-12p11---------------|--------------|----14-12-12---11---12-|
|-------14-14-(14)----|-(14)---------|-----------------------|
|---------------------|--------------|-----------------------|
|---------------------|--------------|-----------------------|
|
|           ~~~~~~~~~~~~~~~~~
|  E  E  E  E  +H        +H.      Q     E  E  E  E E  E E  E
|---------------------|--------------|-----------------------|
|---------------------|--------------|-17-15-----------------|
|-16p14---------------|--------------|-------16-16---14---16-|
|-------17-17-(17)----|-(17)---------|-----------------------|
|---------------------|--------------|-----------------------|
|---------------------|--------------|-----------------------|


                         1.
                         D
                          ~~~~~~~~~~~~~
  E  E E  E E  E  E  E    H.       +E   S  S
|----------------------|---------------------|
|----------------------|---------------------|
|---14---12---14-12-11-|-12-------(12)-11h12p|
|----------------------|---------------------|
|----------------------|---------------------|
|----------------------|---------------------|
|
|                         ~~~~~~~~~~~~~
| E  E E  E E  E  E  E    H.       +E   S  S
|----------------------|---------------------|
|----------------------|---------------------|
|---17---16---17-16-14-|-16-------(16)-14h16p|
|----------------------|---------------------|
|----------------------|---------------------|
|----------------------|---------------------|


                2.
  B             D                    B
   ~~                                  ~~~~
   W             H..         E        +W
|------------||--------------------|---------|
|-----------o||-16b17-------16pb17r|=(16)----|
|-11---------||--------------------|---------|
|------------||--------------------|---------|
|-----------o||--------------------|---------|
|------------||--------------------|---------|
|
|  ~~                                  ~~~~
|  W             H..         E         W
|------------||-14b15-------14pb15r|==14-----|
|-----------o||--------------------|---------|
|-14---------||--------------------|---------|
|------------||--------------------|---------|
|-----------o||--------------------|---------|
|------------||--------------------|---------|


 Verse
  E5
  Gtrs I, II
  PM----------------------------------------|
  E S S E S S E S S E S S   E S S E S S E S S Q
|-------------------------|-----------------------|
|-------------------------|-----------------------|
|-------------------------|-----------------------|
|-9-9-9-9-9-9-9-9-9-9-9-9-|-9-9-9-9-9-9-9-9-9-9\--|
|-7-7-7-7-7-7-7-7-7-7-7-7-|-7-7-7-7-7-7-7-7-7-7\--|
|-------------------------|-----------------------|


  C5                                        D5
  PM--------------------------------------|
  E S S E S S E S S E S S   E S S E S S E E Q
|-------------------------|----------------------|
|-------------------------|----------------------|
|-------------------------|----------------------|
|-5-5-5-5-5-5-5-5-5-5-5-5-|-5-5-5-5-5-5-5S7-7----|
|-3-3-3-3-3-3-3-3-3-3-3-3-|-3-3-3-3-3-3-3S5-5----|
|-------------------------|----------------------|


  E5
  Gtrs I, II
  PM----------------------------------------|
  E S S E S S E S S E S S   E S S E S S E S S Q
|-------------------------|-----------------------|
|-------------------------|-----------------------|
|-------------------------|-----------------------|
|-9-9-9-9-9-9-9-9-9-9-9-9-|-9-9-9-9-9-9-9-9-9-9\--|
|-7-7-7-7-7-7-7-7-7-7-7-7-|-7-7-7-7-7-7-7-7-7-7\--|
|-------------------------|-----------------------|


  C5                                        D5
  PM--------------------------------------|
  E S S E S S E S S E S S   E S S E S S E E Q
|-------------------------|----------------------|
|-------------------------|----------------------|
|-------------------------|----------------------|
|-5-5-5-5-5-5-5-5-5-5-5-5-|-5-5-5-5-5-5-5S7-7----|
|-3-3-3-3-3-3-3-3-3-3-3-3-|-3-3-3-3-3-3-3S5-5----|
|-------------------------|----------------------|


 Pre-Chorus
  A5                         F5            G5
  H..       S S   W          H..       E   H    q  q
|---------------|----------|-------------|------------|
|---------------|----------|-6-----------|-8----------|
|-9---------9-9-|-9--------|-5-----------|-7----4--7--|
|-7---------7-7-|-7--------|-3---------0-|-5----2--5--|
|-0---------0-0-|-0--------|-------------|------------|
|---------------|----------|-------------|------------|


  A5                         F5            G5   E5IG5
  H..       S S   W          H..       E   H    q  q
|---------------|----------|-------------|-------------|
|---------------|----------|-6-----------|-8-------8---|
|-9---------9-9-|-9--------|-5-----------|-7----4--7---|
|-7---------7-7-|-7--------|-3---------0-|-5----2--5---|
|-0---------0-0-|-0--------|-------------|-------------|
|---------------|----------|-------------|-------------|


 Verse
  E5
  PM-------------------------------------------------
  E S S E S S E S S E S S   E S S E S S E S S E S S
|-------------------------|-------------------------|
|-------------------------|-------------------------|
|-------------------------|-------------------------|
|-9-9-9-9-9-9-9-9-9-9-9-9-|-9-9-9-9-9-9-9-9-9-9-9-9-|
|-7-7-7-7-7-7-7-7-7-7-7-7-|-7-7-7-7-7-7-7-7-7-7-7-7-|
|-------------------------|-------------------------|


 -------------------------------------|
  E S S E S S E S S E S S   E S S E S S E E E E
|-------------------------|----------------------|
|-------------------------|----------------------|
|-------------------------|----------------------|
|-9-9-9-9-9-9-9-9-9-9-9-9-|-9-9-9-9-9-9-7-9-7-9--|
|-7-7-7-7-7-7-7-7-7-7-7-7-|-7-7-7-7-7-7-7-7-7-7--|
|-------------------------|----------------------|


  D
                          PM------------------------------|
  W          +W           E S S E S S E S S E S S   E S S E E Q  E E
|----------|------------|-------------------------|-------------------|
|-7--------|-(7)--------|-------------------------|-------------------|
|-7--------|-(7)--------|-------------------------|-------------------|
|-7--------|-(7)--------|-9-9-9-9-9-9-9-9-9-9-9-9-|-9-9-9-9-7-9--7----|
|-5--------|-(5)--------|-7-7-7-7-7-7-7-7-7-7-7-7-|-7-7-7-7-7-7--7-x--|
|----------|------------|-------------------------|-------------------|


   Interlude 1
    C
          |-3-|                |-3-|
    Q  Q  E E E E E   +E  E Q  E E E Q
||------------------|--------------------||
||o-----------------|-------------------o||
||------------------|--------------------||
||-----5--4h5p4-----|-------5--4h5p4-----||
||o-3-----------5-3-|-(3)-3----------5--o||
||------------------|--------------------||


      Am
            |-3-|                |-3-|
      Q  Q  E E E E E   +E  E Q  E E E Q
|-||------------------|--------------------||
|-||o-----------------|-------------------o||
|-||------------------|--------------------||
|-||-----5--4h5p4-----|-------5--4h5p4-----||
|-||o-0-----------5-0-|-(0)-0----------5--o||
|-||------------------|--------------------||


    C
    Gtr I
          |-3-|                |-3-|
    Q  Q  E E E E E   +E  E Q  E E E Q
||------------------|--------------------||
||o-----------------|-------------------o||
||-----4--2h4p2-----|-------4--2h4p2-----||
||--2-----------5-2-|-(2)-2----------5---||
||o-----------------|-------------------o||
||------------------|--------------------||
|
|   Gtr II
|         |-3-|                |-3-|
|   Q  Q  E E E E E   +E  E Q  E E E Q
||------------------|--------------------||
||o-----------------|-------------------o||
||------------------|--------------------||
||-----5--4h5p4-----|-------5--4h5p4-----||
||o-3-----------5-3-|-(3)-3----------5--o||
||------------------|--------------------||


      Am
            |-3-|                |-3-|
      Q  Q  E E E E E   +E  E Q  E E E Q
|-||------------------|--------------------||
|-||o-----------------|-------------------o||
|-||-----4--2h4p2-----|-------4--2h4p2-----||
|-||--2-----------5-2-|-(2)-2----------5---||
|-||o-----------------|-------------------o||
|-||------------------|--------------------||
|
|           |-3-|                |-3-|
|     Q  Q  E E E E E   +E  E Q  E E E Q
|-||------------------|--------------------||
|-||o-----------------|-------------------o||
|-||------------------|--------------------||
|-||-----5--4h5p4-----|-------5--4h5p4-----||
|-||o-3-----------5-3-|-(3)-3----------5--o||
|-||------------------|--------------------||


   Chorus
    E5                            C5                           D5
                PM   PM|
    W           E  E E E H        Q.   E  H       Q.    E  Q   Q
||-----------|------------------|--------------|-------------------|
||o----------|------------------|--------------|-------------------|
||-----------|-----9-----9------|-5S==12-12----|-11S===14-14\--7---|
||-----------|-----9-----9------|--------------|-------------------|
||o-7--------|-----7-----7------|-3S==10-10----|--9S===12-12\--5---|
||--0--------|--0----0-0--------|--------------|-------------------|
|
|   W          +H.          E E   W              +H.           Q
||-----------|------------------|--------------|-------------------|
||o----------|------------------|--------------|-------------------|
||-----------|------------------|--------------|-------------------|
||--9--------|-(9)--------------|-5------------|-(5)-----------7---|
||o-7--------|-(7)----------x-x-|-3------------|-(3)-----------5---|
||-----------|------------------|--------------|-------------------|


  E5                                 C5              A5open
              \5/   \5/   \5/
                          ~~~~                       ~~
  W           Q     Q     H           H.       Q     W
|----------|-----------------------|---------------|------------|
|----------|-----------------------|---------------|------------|
|-9--------|-<9>---<9>---<9>-------|-12-------12\--|-9----------|
|----------|-----------------------|---------------|------------|
|-7--------|-----------------------|-10-------10\--|-7----------|
|----------|-----------------------|---------------|------------|
|
| W          +H.               E E    H.       Q     H.      Q
|----------|-----------------------|---------------|------------|
|----------|-----------------------|---------------|------------|
|----------|-----------------------|---------------|------------|
|-9--------|-(9)-------------------|--5--------5---|-2-------2--|
|-7--------|-(7)---------------x-x-|--3--------3---|-0-------0--|
|----------|-----------------------|---------------|------------|


  E5                          C5
              PM   PM|
  W           E  E E E H      Q.   E  H       Q.    E  Q.   E
|----------|----------------|--------------|------------------|
|----------|----------------|--------------|------------------|
|----------|-----9-----9----|-5S==12-12----|-11S===14-14\---9-|
|----------|-----9-----9----|--------------|------------------|
|-7--------|-----7-----7----|-3S==10-10----|--9S===12-12\---7-|
|-0--------|--0----0-0------|--------------|------------------|
|
| W          +W               W              +W
|----------|----------------|--------------|------------------|
|----------|----------------|--------------|------------------|
|----------|----------------|--------------|------------------|
|-9--------|-(9)------------|-5------------|-(5)--------------|
|-7--------|-(7)------------|-3------------|-(3)--------------|
|----------|----------------|--------------|------------------|


  D5                            B5(type 2)            C5      D5     E5
  ~
  W           H      Q   E  E    H      +E   Q    E    +W
|----------|------------------|---------------------|-------------------||
|----------|------------------|---------------------|------------------o||
|-7--------|-11-----12--12S16-|-16-----(16)S19---19-|-(19)--------------||
|----------|------------------|---------------------|-------------------||
|-5--------|--9-----10--10S14-|-14-----(14)S17---17-|-(17)-------------o||
|----------|------------------|---------------------|-------------------||
|
| W          +H.         Q       H.            E  E     Q   E E Q  E E
|----------|------------------|---------------------|-------------------||
|----------|------------------|---------------------|------------------o||
|----------|------------------|---------------------|-------------------||
|-7--------|-(7)---------7S===|==4-------------4--5-|---5---5S7-7--7-9--||
|-5--------|-(5)---------5S===|==2-------------2--3-|---3---3S5-5--5-7-o||
|----------|------------------|---------------------|-------------------||


 Outro
  B5(type 3)                                      B5(type 3)
  Gtrs I, II
  E S S E S S E S S E S S   E S S E S S E E E E   +E  S S E S S E S S E S S
|-------------------------|---------------------|---------------------------|
|-------------------------|---------------------|---------------------------|
|-------------------------|---------------------|---------------------------|
|-4-4-4-4-4-4-4-4-4-4-4-4-|-4-4-4-4-4-4-------4-|-(4)-4-4-4-4-4-4-4-4-4-4-4-|
|-2-2-2-2-2-2-2-2-2-2-2-2-|-2-2-2-2-2-2-2-3-0-2-|-(2)-2-2-2-2-2-2-2-2-2-2-2-|
|-------------------------|---------------------|---------------------------|


                        B5(type 3)
  E S S E S S E E E E   E S S E S S E S S E S S
|---------------------|-------------------------|
|---------------------|-------------------------|
|---------------------|-------------------------|
|-4-4-4-4-4-4---3-2---|-4-4-4-4-4-4-4-4-4-4-4-4-|
|-2-2-2-2-2-2-2-----3-|-2-2-2-2-2-2-2-2-2-2-2-2-|
|---------------------|-------------------------|


                        B5(type 3)
  E S S E S S E E E E   +E  S S E S S E S S E S S
|---------------------|---------------------------|
|---------------------|---------------------------|
|---------------------|---------------------------|
|-4-4-4-4-4-4-------4-|-(4)-4-4-4-4-4-4-4-4-4-4-4-|
|-2-2-2-2-2-2-2-3-0-2-|-(2)-2-2-2-2-2-2-2-2-2-2-2-|
|---------------------|---------------------------|


                            E5
                                    TP          TP
  E E E E E E E E   E E E E Q  Q    W          +W
|-----------------|---------------|----------|--------|
|-----------------|---------------|----------|--------|
|-----------------|---------------|----------|--------|
|---3-2-----------|---------9-----|-9--------|-(9)----|
|-2-----3-2-3-2-0-|-5-3-----7-----|-7--------|-(7)----|
|-----------------|-----3---------|----------|--------|


 3/4                   4/4
   TP         TP
  +H.        +H.        Q   Q  H
|----------|----------|-------------*|
|----------|----------|-------------*|
|----------|----------|-------------*|
|-(9)------|-(9)------|-9\----------*|
|-(7)------|-(7)------|-7\----------*|
|----------|----------|-------------*|


Duration Legend
---------------
W - whole; H - half; Q - quarter; E - 8th; S - 16th; T - 32nd; X - 64th; a - acciaccatura
+ - note tied to previous; . - note dotted; .. - note double dotted
Uncapitalized letters represent notes that are staccato (1/2 duration)
Irregular groupings are notated above the duration line
Duration letters will always appear directly above the note/fret number it represents the
duration for.  Duration letters with no fret number below them represent rests.  Multi-
bar rests are notated in the form Wxn, where n is the number of bars to rest for.  Low
melody durations appear below the staff

Tablature Legend
----------------
 h   - hammer-on
 p   - pull-off
 b   - bend
 pb  - pre-bend
 r   - bend release (if no number after the r, then release immediately)
 /\  - slide into or out of (from/to "nowhere")
 s   - legato slide
 S   - shift slide
  - natural harmonic
[n]  - artificial harmonic
n(n) - tapped harmonic
 ~   - vibrato
 tr  - trill
 T   - tap
 TP  - trem. picking
 PM  - palm muting
\n/  - tremolo bar dip; n = amount to dip
 \n  - tremolo bar down
 n/  - tremolo bar up
/n\  - tremolo bar inverted dip
 =   - hold bend; also acts as connecting device for hammers/pulls
 <>  - volume swell (louder/softer)
 x   - on rhythm slash represents muted slash
 o   - on rhythm slash represents single note slash

Misc Legend
-----------
 |  - bar
||  - double bar
||o - repeat start
o|| - repeat end
*|  - double bar (ending)
 :  - bar (freetime)
 $  - Segno
 &  - Coda
Tempo markers -  = BPM(8/16=s8/s16), where s8 = swing 8ths, s16 = swing 16ths


***************************************************************************************
* Generated using Power Tab Editor by Brad Larsen - http://powertab.guitarnetwork.org *
***************************************************************************************

            
            
Suggest correction
Creating personal tab
Creating personal tab
You can edit any tab online and save it as your Personal.

You can edit, replace or remove any tab part or add personal notes – all changes will be seen only by you.

Personal tabs can be accessed anytime from any device, even offline.
Learn more »
Give kudos to tab author, rate the tab!
1 2 3 4 5
comments
print report bad tab
guest
You may want to rate the tab now too:
select rating
Wanna post a correction for this tab? Suggest correction