Oops, an error
Loading. Please wait.

Children Of The Damned tab

version 3
version 3

Whole song

1,837 views 42 this week
2 commentsread comments
1 2 3 4 5
x 6
add to favorites
×
Save as Personal and add changes to this tab that will be seen only by you. Learn more ›
×
You can save this tab as Personal to edit and correct it or add notes. All changes will be seen only by you. Learn more »
launch autoscroll
font size
0
reset
how to read this tab
guitar tuner
backing track
0:00
0:00
edit
Autoscroll
slow
fast
+/-
esc
set tempo
stop
Author
Difficulty
intermediate
About this tab version
Has all Instruments With Voice Melody. Was this info helpful? Yes No
Children Of The Damned
Iron Maiden

Instruments:
- G #1
- G #2
- G #3
- Voice Melody


Guitar #1:
Adrian Smith

[Intro]                                          
          Em                      G                       
          ^                                               
     S    H        E  E  E  E     Q    E  E  E  E  E  E   
e|----|--0--------0-----------|-------------3-----------|
B|----|--0-----------0--------|----------3-----3--------|
G|----|--0--------------0-----|-------0-----------0-----|
D|----|--2-----------------2--|----------------------0--|
A|----|--2--------------------|-------------------------|
E|----|--0--------------------|--3----------------------|

    D                       C           D              Em                    
    ^                       ^           ^              ^                     
    H        E  E  E  E     E  E  E  E  E  E  E  E     H        E  E  E  E   
e|-----------2-----------|-----0-----------2--------|--0--------0-----------|
B|--------------3--------|--1-----1-----3-----3-----|--0-----------0--------|
G|--2--------------2--0--|--0--------0--2--------2--|--0--------------0-----|
D|--0--------------------|--2-----------0-----------|--2-----------------2--|
A|-----------------------|--3-----------------------|--2--------------------|
E|-----------------------|--------------------------|--0--------------------|

    G                         D                       C           D            
                              ^                       ^           ^            
    Q    E  E  E  E  E  E     H        E  E  E  E     E  E  E  E  E  E  E  E   
e|-------------3-----------|-----------2-----------|-----0-----------2--------|
B|----------3-----3--------|--------------3--------|--1-----1-----3-----3-----|
G|-------0-----------0-----|--2--------------2--0--|--0--------0--2--------2--|
D|----------------------0--|--0--------------------|--2-----------0-----------|
A|-------------------------|-----------------------|--3-----------------------|
E|--3----------------------|-----------------------|--------------------------|

[Intro Solo]                                                                
    Em                        G                         D                     
    ^                                                   ^                     
    H          E  E  E  E     Q    E  E  E  E  E  E     H        E  E  E  E   
e|--0----------0-----------|-------------3-----------|-----------2-----------|
B|--0-------------0--------|----------3-----3--------|--------------3--------|
G|--0----------------0-----|-------0-----------0-----|--2--------------2--0--|
D|--2-------------------2--|----------------------0--|--0--------------------|
A|--2----------------------|-------------------------|-----------------------|
E|--0----------------------|--3----------------------|-----------------------|

    C           D              Em                      G                       
    ^           ^              ^                                               
    E  E  E  E  E  E  E  E     H        E  E  E  E     Q    E  E  E  E  E  E   
e|-----0-----------2--------|--0--------0-----------|-------------3-----------|
B|--1-----1-----3-----3-----|--0-----------0--------|----------3-----3--------|
G|--0--------0--2--------2--|--0--------------0-----|-------0-----------0-----|
D|--2-----------0-----------|--2-----------------2--|----------------------0--|
A|--3-----------------------|--2--------------------|-------------------------|
E|--------------------------|--0--------------------|--3----------------------|

    D                       C           D            
    ^                       ^           ^            
    H        E  E  E  E     E  E  E  E  E  E  E  E   
e|-----------2-----------|-----0-----------2--------|
B|--------------3--------|--1-----1-----3-----3-----|
G|--2--------------2--0--|--0--------0--2--------2--|
D|--0--------------------|--2-----------0-----------|
A|-----------------------|--3-----------------------|
E|-----------------------|--------------------------|

[Verse Riff 1]                                                                
    Em                                                      C7M                  
    Q            Q    Q    Q       Q    Q    Q    E   E     Q    Q    Q    Q     
e|------------------------------|--0---------------------|----------------------|
B|------------------------------|-------0----------------|-----------------0----|
G|-------------------------0----|------------0-----------|------------0---------|
D|--------------------2---------|------------------------|-------2--------------|
A|---------------2--------------|-----------------0h--2--|--3-------------------|
E|--0---------------------------|------------------------|----------------------|

    G7M                         Em                                            
    E   E  E  E  E  E  E  E     Q    Q    Q    Q       Q    Q    Q    E   E   
e|---------------------------|----------------------|--0---------------------|
B|---------------0-----------|----------------------|-------0----------------|
G|---------0--------0-----0--|-----------------0----|------------0-----------|
D|------4-----4--------4-----|------------2---------|------------------------|
A|--5------------------------|-------2--------------|-----------------0h--2--|
E|---------------------------|--0-------------------|------------------------|

    C7M                    G7M                         Em                   
    Q    Q    Q    Q       E   E  E  E  E  E  E  E     Q    Q    Q    Q     
e|----------------------|---------------------------|----------------------|
B|-----------------0----|---------------0-----------|----------------------|
G|------------0---------|---------0--------0-----0--|-----------------0----|
D|-------2--------------|------4-----4--------4-----|------------2---------|
A|--3-------------------|--5------------------------|-------2--------------|
E|----------------------|---------------------------|--0-------------------|

                             C7M                    G7M                       
    Q    Q    Q    E   E     Q    Q    Q    Q       E   E  E  E  E  E  E  E   
e|--0---------------------|----------------------|---------------------------|
B|-------0----------------|-----------------0----|---------------0-----------|
G|------------0-----------|------------0---------|---------0--------0-----0--|
D|------------------------|-------2--------------|------4-----4--------4-----|
A|-----------------0h--2--|--3-------------------|--5------------------------|
E|------------------------|----------------------|---------------------------|

    Em                                              C7M                  
    Q    Q    Q    Q       Q    Q    Q    E   E     Q    Q    Q    Q     
e|----------------------|--0---------------------|----------------------|
B|----------------------|-------0----------------|-----------------0----|
G|-----------------0----|------------0-----------|------------0---------|
D|------------2---------|------------------------|-------2--------------|
A|-------2--------------|-----------------0h--2--|--3-------------------|
E|--0-------------------|------------------------|----------------------|

[Chorus]                                        
    G7M                                                                    
    E   E  E  E   H            H        Q    Q       Q    Q    Q    E  E   
e|--------------------------|---------------------|-----------------------|
B|--------------------------|---------------------|-----------------------|
G|---------0----------------|---------------------|-----------------------|
D|------4-----4-------------|-----------9----9----|--L----4----4----------|
A|--5------------12\--------|--2--------7----7----|--L----2----2----0--2--|
E|---------------12\--------|--0------------------|-----------------------|

                                      PM PM PM PM                        
    Q.     E  H           E  E  E  E  E  E  E  E     H        Q    Q     
e|---------------------|--------------------------|---------------------|
B|---------------------|--------------------------|---------------------|
G|---------------------|--------------------------|---------------------|
D|--5------5--5--------|--7--7--7-----------------|-----------9----9----|
A|--3------3--3--------|--5--5--5-----------------|--2--------7----7----|
E|---------------------|--------------5--5--3--2--|--0------------------|

                                                             PM PM PM PM  
    Q    Q    Q    E  E     Q.     E  H           E  E  Q    E  E  E  E   
e|-----------------------|---------------------|-------------------------|
B|-----------------------|---------------------|-------------------------|
G|-----------------------|---------------------|-------------------------|
D|--L----4----4----------|--5------5--5--------|--7--7-------------------|
A|--L----2----2----0--2--|--3------3--3--------|--5--5-------------------|
E|-----------------------|---------------------|-------------5--5--3--2--|

    H        Q    Q       Q    Q    Q    E  E     Q.     E  H         
e|---------------------|-----------------------|---------------------|
B|---------------------|-----------------------|---------------------|
G|---------------------|-----------------------|---------------------|
D|-----------9----9----|--L----4----4----------|--5------5--5--------|
A|--2--------7----7----|--L----2----2----0--2--|--3------3--3--------|
E|--0------------------|-----------------------|---------------------|

               PM PM PM PM                                                
    Q    E.  S E  E  E  E     H        Q    Q       Q    Q    Q    E  E   
e|-------------------------|---------------------|-----------------------|
B|-------------------------|---------------------|-----------------------|
G|-------------------------|---------------------|-----------------------|
D|--7----7-----------------|-----------9----9----|--L----4----4----------|
A|--5----5-----------------|--2--------7----7----|--L----2----2----0--2--|
E|-------------5--5--3--2--|--0------------------|-----------------------|

[Verse riff 1]                 
                                                    Em                           
                                     PM PM PM PM                                 
    Q.     E  H           E  E  Q    E  E  E  E     Q            Q    Q    Q     
e|---------------------|-------------------------|------------------------------|
B|---------------------|-------------------------|------------------------------|
G|---------------------|-------------------------|-------------------------0----|
D|--5------5--5--------|--7--7-------------------|--------------------2---------|
A|--3------3--3--------|--5--5-------------------|---------------2--------------|
E|---------------------|-------------5--5--3--2--|--0---------------------------|

                             C7M                    G7M                       
    Q    Q    Q    E   E     Q    Q    Q    Q       E   E  E  E  E  E  E  E   
e|--0---------------------|----------------------|---------------------------|
B|-------0----------------|-----------------0----|---------------0-----------|
G|------------0-----------|------------0---------|---------0--------0-----0--|
D|------------------------|-------2--------------|------4-----4--------4-----|
A|-----------------0h--2--|--3-------------------|--5------------------------|
E|------------------------|----------------------|---------------------------|

    Em                                              C7M                  
    Q    Q    Q    Q       Q    Q    Q    E   E     Q    Q    Q    Q     
e|----------------------|--0---------------------|----------------------|
B|----------------------|-------0----------------|-----------------0----|
G|-----------------0----|------------0-----------|------------0---------|
D|------------2---------|------------------------|-------2--------------|
A|-------2--------------|-----------------0h--2--|--3-------------------|
E|--0-------------------|------------------------|----------------------|

    G7M                         Em                                            
    E   E  E  E  E  E  E  E     Q    Q    Q    Q       Q    Q    Q    E   E   
e|---------------------------|----------------------|--0---------------------|
B|---------------0-----------|----------------------|-------0----------------|
G|---------0--------0-----0--|-----------------0----|------------0-----------|
D|------4-----4--------4-----|------------2---------|------------------------|
A|--5------------------------|-------2--------------|-----------------0h--2--|
E|---------------------------|--0-------------------|------------------------|

    C7M                    G7M                         Em                   
    Q    Q    Q    Q       E   E  E  E  E  E  E  E     Q    Q    Q    Q     
e|----------------------|---------------------------|----------------------|
B|-----------------0----|---------------0-----------|----------------------|
G|------------0---------|---------0--------0-----0--|-----------------0----|
D|-------2--------------|------4-----4--------4-----|------------2---------|
A|--3-------------------|--5------------------------|-------2--------------|
E|----------------------|---------------------------|--0-------------------|

                             C7M                    G7M                      
    Q    Q    Q    E   E     Q    Q    Q    Q       E   E  E  E   H          
e|--0---------------------|----------------------|--------------------------|
B|-------0----------------|-----------------0----|--------------------------|
G|------------0-----------|------------0---------|---------0----------------|
D|------------------------|-------2--------------|------4-----4-------------|
A|-----------------0h--2--|--3-------------------|--5------------12\--------|
E|------------------------|----------------------|---------------12\--------|

[Chorus]                                                             
    H        Q    Q       Q    Q    Q    E  E     Q.     E  H         
e|---------------------|-----------------------|---------------------|
B|---------------------|-----------------------|---------------------|
G|---------------------|-----------------------|---------------------|
D|-----------9----9----|--L----4----4----------|--5------5--5--------|
A|--2--------7----7----|--L----2----2----0--2--|--3------3--3--------|
E|--0------------------|-----------------------|---------------------|

                PM PM PM PM                                                
    E  E  E  E  E  E  E  E     H        Q    Q       Q    Q    Q    E  E   
e|--------------------------|---------------------|-----------------------|
B|--------------------------|---------------------|-----------------------|
G|--------------------------|---------------------|-----------------------|
D|--7--7--7-----------------|-----------9----9----|--L----4----4----------|
A|--5--5--5-----------------|--2--------7----7----|--L----2----2----0--2--|
E|--------------5--5--3--2--|--0------------------|-----------------------|

                                     PM PM PM PM                        
    Q.     E  H           E  E  Q    E  E  E  E     H        Q    Q     
e|---------------------|-------------------------|---------------------|
B|---------------------|-------------------------|---------------------|
G|---------------------|-------------------------|---------------------|
D|--5------5--5--------|--7--7-------------------|-----------9----9----|
A|--3------3--3--------|--5--5-------------------|--2--------7----7----|
E|---------------------|-------------5--5--3--2--|--0------------------|

                                                             PM PM PM PM  
    Q    Q    Q    E  E     Q.     E  H           Q    E.  S E  E  E  E   
e|-----------------------|---------------------|-------------------------|
B|-----------------------|---------------------|-------------------------|
G|-----------------------|---------------------|-------------------------|
D|--L----4----4----------|--5------5--5--------|--7----7-----------------|
A|--L----2----2----0--2--|--3------3--3--------|--5----5-----------------|
E|-----------------------|---------------------|-------------5--5--3--2--|

    H        Q    Q       Q    Q    Q    E  E     Q.     E  H         
e|---------------------|-----------------------|---------------------|
B|---------------------|-----------------------|---------------------|
G|---------------------|-----------------------|---------------------|
D|-----------9----9----|--L----4----4----------|--5------5--5--------|
A|--2--------7----7----|--L----2----2----0--2--|--3------3--3--------|
E|--0------------------|-----------------------|---------------------|

[Break]                                
    Q    Q    Q       E     E  H.              W                 
e|-----------------|------------------------|-------------------|
B|-----------------|------------------------|-------------------|
G|-----------------|--7-----9--L------------|--L----------------|
D|-----------------|--7-----9--L------------|--L----------------|
A|--7----5----4----|--5-----7--L------------|--L----------------|
E|--5----3----2----|------------------------|-------------------|

    W                   W                   W                   W                 
e|-------------------|-------------------|-------------------|-------------------|
B|-------------------|-------------------|-------------------|-------------------|
G|--7----------------|--L----------------|--5----------------|--7----------------|
D|--7----------------|--L----------------|--5----------------|--7----------------|
A|--5----------------|--L----------------|--3----------------|--5----------------|
E|-------------------|-------------------|-------------------|-------------------|

[Verse Riff 2]         
    W                   H.           E  E       H.           E   E   
e|-------------------|---------------------|------------------------|
B|-------------------|---------------------|------------------------|
G|--9----------------|--L------------L--7--|--7g9------------L--11--|
D|--9----------------|--L------------L--x--|----x------------L---x--|
A|--7----------------|--L------------L--5--|--5g7------------L---9--|
E|-------------------|---------------------|------------------------|

        Q.      Q    Q    E       H.           E   E   
e|---------------------------|------------------------|
B|---------------------------|------------------------|
G|--11g12------11----9----7--|--7g9------------L--11--|
D|------x-------x----x----x--|----x------------L---x--|
A|---9g10-------9----7----5--|--5g7------------L---9--|
E|---------------------------|------------------------|

        Q.      E  Q    Q           H         E   Q.      
e|---------------------------|---------------------------|
B|---------------------------|---------------------------|
G|--11g12------11--9----7----|--14g16---------L--17------|
D|------x-------x--x----x----|------x---------L---x------|
A|---9g10-------9--7----5----|--12g14---------L--15------|
E|---------------------------|---------------------------|

     H         E   Q     E     W                   H.           E  E   
e|--------------------------|-------------------|---------------------|
B|--------------------------|-------------------|---------------------|
G|--14---------L--16----12--|--9----------------|--L------------L--7--|
D|---x---------L---x-----x--|--x----------------|--L------------L--x--|
A|--12---------L--14----10--|--7----------------|--L------------L--5--|
E|--------------------------|-------------------|---------------------|

      H.           E   E         Q.      Q    Q    E       H.           E   E   
e|------------------------|---------------------------|------------------------|
B|------------------------|---------------------------|------------------------|
G|--7g9------------L--11--|--11g12------11----9----7--|--7g9------------L--11--|
D|----x------------L---x--|------x-------x----x----x--|----x------------L---x--|
A|--5g7------------L---9--|---9g10-------9----7----5--|--5g7------------L---9--|
E|------------------------|---------------------------|------------------------|

        Q.      E  Q    Q           H         E   Q.      
e|---------------------------|---------------------------|
B|---------------------------|---------------------------|
G|--11g12------11--9----7----|--14g16---------L--17------|
D|------x-------x--x----x----|------x---------L---x------|
A|---9g10-------9--7----5----|--12g14---------L--15------|
E|---------------------------|---------------------------|

     H         E   Q     E      W                    H.            E  E   
e|--------------------------|--------------------|-----------------------|
B|--------------------------|--------------------|-----------------------|
G|--14---------L--16----12--|--11----------------|---L-------------L--7--|
D|---x---------L---x-----x--|---x----------------|---L-------------L--x--|
A|--12---------L--14----10--|---9----------------|---L-------------L--5--|
E|--------------------------|--------------------|-----------------------|

      H.           E   E         Q.      Q    Q    E       H.           E   E   
e|------------------------|---------------------------|------------------------|
B|------------------------|---------------------------|------------------------|
G|--7g9------------L--11--|--11g12------11----9----7--|--7g9------------L--11--|
D|----x------------L---x--|------x-------x----x----x--|----x------------L---x--|
A|--5g7------------L---9--|---9g10-------9----7----5--|--5g7------------L---9--|
E|------------------------|---------------------------|------------------------|

        Q.      E  Q    Q           H         E   Q.      
e|---------------------------|---------------------------|
B|---------------------------|---------------------------|
G|--11g12------11--9----7----|--14g16---------L--17------|
D|------x-------x--x----x----|------x---------L---x------|
A|---9g10-------9--7----5----|--12g14---------L--15------|
E|---------------------------|---------------------------|

     H         E   Q     E     W                   W                 
e|--------------------------|-------------------|-------------------|
B|--------------------------|-------------------|-------------------|
G|--14---------L--16----12--|--9----------------|--L----------------|
D|---x---------L---x-----x--|--x----------------|--L----------------|
A|--12---------L--14----10--|--7----------------|--L----------------|
E|--------------------------|-------------------|-------------------|

[Interlude]                                                           
    H.            E  E     Q    E  Q    Q      E      H.           E  E   
e|----------------------|--------------------------|---------------------|
B|----------------7--8--|--L----7--5---------------|---------------1--3--|
G|--7b------------------|---------------7----2g4~--|--L------------------|
D|----------------------|--------------------------|---------------------|
A|----------------------|--------------------------|---------------------|
E|----------------------|--------------------------|---------------------|

    Q    E  Q    Q    E      H.           Q         H         Q.      E    
e|------------------------|---------------------|-------------------------|
B|--L----1--0----3----1~--|--L------------------|-------------------------|
G|------------------------|---------------7b----|--10b--------9b------7b--|
D|------------------------|---------------------|-------------------------|
A|------------------------|---------------------|-------------------------|
E|------------------------|---------------------|-------------------------|

    W                   W                   H.            E  E   
e|-------------------|-------------------|----------------------|
B|-------------------|-------------------|----------------7--8--|
G|--L----------------|--L----------------|--7b------------------|
D|-------------------|-------------------|----------------------|
A|-------------------|-------------------|----------------------|
E|-------------------|-------------------|----------------------|

    Q    E  Q    Q      E      H.           E  E     Q    E  Q    Q    E    
e|--------------------------|---------------------|------------------------|
B|--L----7--5---------------|---------------1--3--|--L----1--0----3----1~--|
G|---------------7----2g4~--|--L------------------|------------------------|
D|--------------------------|---------------------|------------------------|
A|--------------------------|---------------------|------------------------|
E|--------------------------|---------------------|------------------------|

    H.           Q         H         Q.      E      W                 
e|---------------------|-------------------------|-------------------|
B|--L------------------|-------------------------|-------------------|
G|---------------7b----|--10b--------9b------7b--|--L----------------|
D|---------------------|-------------------------|-------------------|
A|---------------------|-------------------------|-------------------|
E|---------------------|-------------------------|-------------------|

    W                 
e|-------------------|
B|-------------------|
G|--L----------------|
D|-------------------|
A|-------------------|
E|-------------------|

[Solo Adrian Smith]                                                  
     T                        T         T         T         T         T  
     S                 S   S  S  S   S  S  S   S  S  S   S  S  S   S  S  
e|--20----------------12h-15-19-12h-15-20-12h-15-19-12h-15-20-12h-15-19-|
B|----------------------------------------------------------------------|
G|----------------------------------------------------------------------|
D|----------------------------------------------------------------------|
A|----------------------------------------------------------------------|
E|----------------------------------------------------------------------|

            T         T         T         T         T     
     S   S  S  S   S  S  S   S  S  S   S  S  S   S  S  S  
e|--12h-15-20-12h-15-19-12h-15-20-12h-15-19-12h-15-20-12-|
B|-------------------------------------------------------|
G|-------------------------------------------------------|
D|-------------------------------------------------------|
A|-------------------------------------------------------|
E|-------------------------------------------------------|

     T         T         T         T         T         T  
     S  S   S  S  S   S  S  S   S  S  S   S  S  S   S  S  
e|--15-10h-12-14-10h-12-15-10h-12-14-10h-12-15-10h-12-14-|
B|-------------------------------------------------------|
G|-------------------------------------------------------|
D|-------------------------------------------------------|
A|-------------------------------------------------------|
E|-------------------------------------------------------|

            T         T         T         T         T     
     S   S  S  S   S  S  S   S  S  S   S  S  S   S  S  S  
e|--10h-12-15-10h-12-14-10h-12-15-10h-12-14-10h-12-15-10-|
B|-------------------------------------------------------|
G|-------------------------------------------------------|
D|-------------------------------------------------------|
A|-------------------------------------------------------|
E|-------------------------------------------------------|

     T        T        T        T        T        T  
     S S   S  S S   S  S S   S  S S   S  S S   S  S  
e|--15-8h-10-14-8h-10-15-8h-10-14-8h-10-15-8h-10-14-|
B|--------------------------------------------------|
G|--------------------------------------------------|
D|--------------------------------------------------|
A|--------------------------------------------------|
E|--------------------------------------------------|

     T         T         T         T         T         T  
     S  S   S  S  S   S  S  S   S  S  S   S  S  S   S  S  
e|--15-10h-12-14-10h-12-15-10h-12-14-10h-12-15-10h-12-14-|
B|-------------------------------------------------------|
G|-------------------------------------------------------|
D|-------------------------------------------------------|
A|-------------------------------------------------------|
E|-------------------------------------------------------|

     T         T         T         T         T         T  
     S  S   S  S  S   S  S  S   S  S  S   S  S  S   S  S  
e|--20-12h-15-19-12h-15-20-12h-15-19-12h-15-20-12h-15-19-|
B|-------------------------------------------------------|
G|-------------------------------------------------------|
D|-------------------------------------------------------|
A|-------------------------------------------------------|
E|-------------------------------------------------------|

     S   S  Q       E    E   Q.       
e|--12h-15-15br----15p--12-----------|
B|--------------------------15~------|
G|-----------------------------------|
D|-----------------------------------|
A|-----------------------------------|
E|-----------------------------------|

     T         T         T         T         T         T  
     S  S   S  S  S   S  S  S   S  S  S   S  S  S   S  S  
e|--20-12h-15-19-12h-15-20-12h-15-19-12h-15-20-12h-15-19-|
B|-------------------------------------------------------|
G|-------------------------------------------------------|
D|-------------------------------------------------------|
A|-------------------------------------------------------|
E|-------------------------------------------------------|

            T         T         T         T         T     
     S   S  S  S   S  S  S   S  S  S   S  S  S   S  S  S  
e|--12h-15-20-12h-15-19-12h-15-20-12h-15-19-12h-15-20-12-|
B|-------------------------------------------------------|
G|-------------------------------------------------------|
D|-------------------------------------------------------|
A|-------------------------------------------------------|
E|-------------------------------------------------------|

     T         T         T         T         T         T  
     S  S   S  S  S   S  S  S   S  S  S   S  S  S   S  S  
e|--15-10h-12-14-10h-12-15-10h-12-14-10h-12-15-10h-12-14-|
B|-------------------------------------------------------|
G|-------------------------------------------------------|
D|-------------------------------------------------------|
A|-------------------------------------------------------|
E|-------------------------------------------------------|

            T         T         T         T         T     
     S   S  S  S   S  S  S   S  S  S   S  S  S   S  S  S  
e|--10h-12-15-10h-12-14-10h-12-15-10h-12-14-10h-12-15-10-|
B|-------------------------------------------------------|
G|-------------------------------------------------------|
D|-------------------------------------------------------|
A|-------------------------------------------------------|
E|-------------------------------------------------------|

     T        T        T        T        T        T  
     S S   S  S S   S  S S   S  S S   S  S S   S  S  
e|--15-8h-10-14-8h-10-15-8h-10-14-8h-10-15-8h-10-14-|
B|--------------------------------------------------|
G|--------------------------------------------------|
D|--------------------------------------------------|
A|--------------------------------------------------|
E|--------------------------------------------------|

     T         T         T         T         T         T  
     S  S   S  S  S   S  S  S   S  S  S   S  S  S   S  S  
e|--15-10h-12-14-10h-12-15-10h-12-14-10h-12-15-10h-12-14-|
B|-------------------------------------------------------|
G|-------------------------------------------------------|
D|-------------------------------------------------------|
A|-------------------------------------------------------|
E|-------------------------------------------------------|

     T         T         T         T         T         T  
     S  S   S  S  S   S  S  S   S  S  S   S  S  S   S  S  
e|--20-12h-15-19-12h-15-20-12h-15-19-12h-15-20-12h-15-19-|
B|-------------------------------------------------------|
G|-------------------------------------------------------|
D|-------------------------------------------------------|
A|-------------------------------------------------------|
E|-------------------------------------------------------|

[Chorus]                
     S   S  Q       E    E   E       E     H.           E   E   
e|--12h-15-15br----15p--12-------|------|----------------------|
B|--------------------------15~--|---L--|----------------------|
G|-------------------------------|------|--9------------L--11--|
D|-------------------------------|------|--x------------L---x--|
A|-------------------------------|------|--7------------L---9--|
E|-------------------------------|------|----------------------|

     E      Q     Q    Q    E     H.           E   E   
e|-----------------------------|----------------------|
B|-----------------------------|----------------------|
G|---L--11g12----11----9----7--|--9------------L--11--|
D|---L------x-----x----x----x--|--x------------L---x--|
A|---L---9g10-----9----7----5--|--7------------L---9--|
E|-----------------------------|----------------------|

     E      Q     Q    Q    E     H.           E   E   
e|-----------------------------|----------------------|
B|-----------------------------|----------------------|
G|---L--11g12----11----9----7--|--9------------L--11--|
D|---L------x-----x----x----x--|--x------------L---x--|
A|---L---9g10-----9----7----5--|--7------------L---9--|
E|-----------------------------|----------------------|

     E      Q     Q    Q     E     H.           E   E   
e|------------------------------|----------------------|
B|------------------------------|----------------------|
G|---L--11g12----11----9----11--|--7------------L--11--|
D|---L------x-----x----x-----x--|--x------------L---x--|
A|---L---9g10-----9----7-----9--|--5------------L---9--|
E|------------------------------|----------------------|

     E      Q     Q    Q     E     H.           E   E   
e|------------------------------|----------------------|
B|------------------------------|----------------------|
G|---L--11g12----11----9----11--|--9------------L--11--|
D|---L------x-----x----x-----x--|--x------------L---x--|
A|---L---9g10-----9----7-----9--|--7------------L---9--|
E|------------------------------|----------------------|

     E      Q     Q    Q    E     H.           E   E   
e|-----------------------------|----------------------|
B|-----------------------------|----------------------|
G|---L--11g12----11----9----7--|--9------------L--11--|
D|---L------x-----x----x----x--|--x------------L---x--|
A|---L---9g10-----9----7----5--|--7------------L---9--|
E|-----------------------------|----------------------|

     E      Q     Q    Q    E     H.           E   E   
e|-----------------------------|----------------------|
B|-----------------------------|----------------------|
G|---L--11g12----11----9----7--|--9------------L--11--|
D|---L------x-----x----x----x--|--x------------L---x--|
A|---L---9g10-----9----7----5--|--7------------L---9--|
E|-----------------------------|----------------------|

     E      Q     Q    Q     E     H.           E   E   
e|------------------------------|----------------------|
B|------------------------------|----------------------|
G|---L--11g12----11----9----11--|--7------------L--14--|
D|---L------x-----x----x-----x--|--x------------L---x--|
A|---L---9g10-----9----7-----9--|--5------------L--12--|
E|------------------------------|----------------------|

[Verse Riff 3]       
     E   E    E   Q     Q     E      H.            E   E   
e|-------------------------------|------------------------|
B|-------------------------------|------------------------|
G|---L--14s--16--14----12----11--|--12-------------L--14--|
D|---L---x----x---x-----x-----x--|---x-------------L---x--|
A|---L--12s--14--12----10-----9--|--10-------------L--12--|
E|-------------------------------|------------------------|

     E   E    E   Q     Q     E      H.            E   E   
e|-------------------------------|------------------------|
B|-------------------------------|------------------------|
G|---L--14s--16--14----12----11--|--12-------------L--14--|
D|---L---x----x---x-----x-----x--|---x-------------L---x--|
A|---L--12s--14--12----10-----9--|--10-------------L--12--|
E|-------------------------------|------------------------|

     E   E    E   Q     Q     E      H.            E   E   
e|-------------------------------|------------------------|
B|-------------------------------|------------------------|
G|---L--14s--16--14----12----11--|--11-------------L--12--|
D|---L---x----x---x-----x-----x--|---x-------------L---x--|
A|---L--12s--14--12----10-----9--|---9-------------L--10--|
E|-------------------------------|------------------------|

     E   E    E   Q     Q     E     H.           E   E   
e|-------------------------------|----------------------|
B|-------------------------------|----------------------|
G|---L--12s--14--12----11----12--|--7------------L--14--|
D|---L---x----x---x-----x-----x--|--x------------L---x--|
A|---L--10s--12--10-----9----10--|--5------------L--12--|
E|-------------------------------|----------------------|

     E   E    E   Q     Q     E      H.            E   E   
e|-------------------------------|------------------------|
B|-------------------------------|------------------------|
G|---L--14s--16--14----12----11--|--12-------------L--14--|
D|---L---x----x---x-----x-----x--|---x-------------L---x--|
A|---L--12s--14--12----10-----9--|--10-------------L--12--|
E|-------------------------------|------------------------|

     E   E    E   Q     Q     E      H.            E   E   
e|-------------------------------|------------------------|
B|-------------------------------|------------------------|
G|---L--14s--16--14----12----11--|--12-------------L--14--|
D|---L---x----x---x-----x-----x--|---x-------------L---x--|
A|---L--12s--14--12----10-----9--|--10-------------L--12--|
E|-------------------------------|------------------------|

     E   E    E   Q     Q     E      H.            E   E   
e|-------------------------------|------------------------|
B|-------------------------------|------------------------|
G|---L--14s--16--14----12----11--|--11-------------L--12--|
D|---L---x----x---x-----x-----x--|---x-------------L---x--|
A|---L--12s--14--12----10-----9--|---9-------------L--10--|
E|-------------------------------|------------------------|

[Outro]                                      
     E   E    E   Q     Q     E     W                   Q     Q     Q    Q     
e|-------------------------------|-------------------|------------------------|
B|-------------------------------|-------------------|------------------------|
G|---L--12s--14--12----11----12--|--7----------------|--L----12----11----9----|
D|---L---x----x---x-----x-----x--|--x----------------|--L-----x-----x----x----|
A|---L--10s--12--10-----9----10--|--5----------------|--L----10-----9----7----|
E|-------------------------------|-------------------|------------------------|

    Q    H.              H         H            W                 
e|--------------------|----------------------|-------------------|
B|--------------------|----------------------|-------------------|
G|--7-----------------|----------------------|-------------------|
D|--x----2------------|------------2~--------|--L----------------|
A|--5----2------------|--2~--------L---------|--L----------------|
E|-------0------------|--L---------L---------|--L----------------|

    Q    Q    Q.     E    
e|----------------------|
B|----------------------|
G|----------------------|
D|--L---------2---------|
A|--L---------2---------|
E|--L---------0---------|


Guitar #2:
Dave Murray

[Intro]                                           
          Em                      G                       
          ^                                               
     S    H        E  E  E  E     Q    E  E  E  E  E  E   
e|----|--0--------0-----------|-------------3-----------|
B|----|--0-----------0--------|----------3-----3--------|
G|----|--0--------------0-----|-------0-----------0-----|
D|----|--2-----------------2--|----------------------0--|
A|----|--2--------------------|-------------------------|
E|----|--0--------------------|--3----------------------|

    D                       C           D              Em                    
    ^                       ^           ^              ^                     
    H        E  E  E  E     E  E  E  E  E  E  E  E     H        E  E  E  E   
e|-----------2-----------|-----0-----------2--------|--0--------0-----------|
B|--------------3--------|--1-----1-----3-----3-----|--0-----------0--------|
G|--2--------------2--0--|--0--------0--2--------2--|--0--------------0-----|
D|--0--------------------|--2-----------0-----------|--2-----------------2--|
A|-----------------------|--3-----------------------|--2--------------------|
E|-----------------------|--------------------------|--0--------------------|

    G                         D                       C           D            
                              ^                       ^           ^            
    Q    E  E  E  E  E  E     H        E  E  E  E     E  E  E  E  E  E  E  E   
e|-------------3-----------|-----------2-----------|-----0-----------2--------|
B|----------3-----3--------|--------------3--------|--1-----1-----3-----3-----|
G|-------0-----------0-----|--2--------------2--0--|--0--------0--2--------2--|
D|----------------------0--|--0--------------------|--2-----------0-----------|
A|-------------------------|-----------------------|--3-----------------------|
E|--3----------------------|-----------------------|--------------------------|

[Intro Solo]                                                        
     W                   Q    Q    Q    Q         Q.     E  E   Q.      
e|--------------------|----------------------|-------------------------|
B|--------------------|----------------------|-------------------------|
G|--------------------|----------------------|-------------------------|
D|--------------------|-------4----5----7----|--7g9------7-------------|
A|--/7----------------|--7-------------------|--------------5~--L------|
E|--------------------|----------------------|-------------------------|

                                                                 |---3---|   
  Q.       E  E  Q.        W                    S  E.  Q    Q    E   E   E   
e|------------------------|--------------------|------------------------------|
B|------------------------|--------------------|------------------------------|
G|------------------------|--------------------|------------------------------|
D|--7br------5--7--5------|--------------------|--7s-9---7----5----4h--5p--4--|
A|------------------------|--7~----------------|------------------------------|
E|------------------------|--------------------|------------------------------|

[Verse Riff 1]     
                                       |--3--|                             
  W                    S  E.  E  E  E  S  S  S E  E     W                  
e|--------------------|--------------------------------|--------------------|
B|--------------------|---------------8--7h-8p-7-------|--------------------|
G|--------------------|---------7----------------9--7--|--9~----------------|
D|--------------------|--7s-9------9-------------------|--------------------|
A|--5~----------------|--------------------------------|--------------------|
E|--------------------|--------------------------------|--------------------|

                        C7M                    G7M                  
    W                   Q    Q    Q    Q       Q    Q    Q    Q     
e|-------------------|----------------------|----------------------|
B|-------------------|-----------------0----|-----------------0----|
G|--L----------------|------------0---------|------------0---------|
D|-------------------|-------2--------------|-------4--------------|
A|-------------------|--3-------------------|--5-------------------|
E|-------------------|----------------------|----------------------|

    Em                                              C7M                  
    Q    Q    Q    Q       Q    Q    Q    E   E     Q    Q    Q    Q     
e|----------------------|--0---------------------|----------------------|
B|----------------------|-------0----------------|-----------------0----|
G|-----------------0----|------------0-----------|------------0---------|
D|------------2---------|------------------------|-------2--------------|
A|-------2--------------|-----------------0h--2--|--3-------------------|
E|--0-------------------|------------------------|----------------------|

    G7M                    Em                                            
    Q    Q    Q    Q       Q    Q    Q    Q       Q    Q    Q    E   E   
e|----------------------|----------------------|--0---------------------|
B|-----------------0----|----------------------|-------0----------------|
G|------------0---------|-----------------0----|------------0-----------|
D|-------4--------------|------------2---------|------------------------|
A|--5-------------------|-------2--------------|-----------------0h--2--|
E|----------------------|--0-------------------|------------------------|

    C7M                    G7M                    Em                   
    Q    Q    Q    Q       Q    Q    Q    Q       Q    Q    Q    Q     
e|----------------------|----------------------|----------------------|
B|-----------------0----|-----------------0----|----------------------|
G|------------0---------|------------0---------|-----------------0----|
D|-------2--------------|-------4--------------|------------2---------|
A|--3-------------------|--5-------------------|-------2--------------|
E|----------------------|----------------------|--0-------------------|

                             C7M                    G7M                  
    Q    Q    Q    E   E     Q    Q    Q    Q       Q    Q    Q    Q     
e|--0---------------------|----------------------|----------------------|
B|-------0----------------|-----------------0----|-----------------0----|
G|------------0-----------|------------0---------|------------0---------|
D|------------------------|-------2--------------|-------4--------------|
A|-----------------0h--2--|--3-------------------|--5-------------------|
E|------------------------|----------------------|----------------------|

[Chorus]                                                            
    H        Q    Q       Q    Q    Q    E  E     Q.     E  H         
e|---------------------|-----------------------|---------------------|
B|---------------------|-----------------------|---------------------|
G|---------------------|-----------------------|---------------------|
D|-----------9----9----|--L----4----4----------|--5------5--5--------|
A|--2--------7----7----|--L----2----2----0--2--|--3------3--3--------|
E|--0------------------|-----------------------|---------------------|

                PM PM PM PM                                                
    E  E  E  E  E  E  E  E     H        Q    Q       Q    Q    Q    E  E   
e|--------------------------|---------------------|-----------------------|
B|--------------------------|---------------------|-----------------------|
G|--------------------------|---------------------|-----------------------|
D|--7--7--7-----------------|-----------9----9----|--L----4----4----------|
A|--5--5--5-----------------|--2--------7----7----|--L----2----2----0--2--|
E|--------------5--5--3--2--|--0------------------|-----------------------|

                                     PM PM PM PM                        
    Q.     E  H           E  E  Q    E  E  E  E     H        Q    Q     
e|---------------------|-------------------------|---------------------|
B|---------------------|-------------------------|---------------------|
G|---------------------|-------------------------|---------------------|
D|--5------5--5--------|--7--7-------------------|-----------9----9----|
A|--3------3--3--------|--5--5-------------------|--2--------7----7----|
E|---------------------|-------------5--5--3--2--|--0------------------|

                                                             PM PM PM PM  
    Q    Q    Q    E  E     Q.     E  H           Q    E.  S E  E  E  E   
e|-----------------------|---------------------|-------------------------|
B|-----------------------|---------------------|-------------------------|
G|-----------------------|---------------------|-------------------------|
D|--L----4----4----------|--5------5--5--------|--7----7-----------------|
A|--L----2----2----0--2--|--3------3--3--------|--5----5-----------------|
E|-----------------------|---------------------|-------------5--5--3--2--|

    H        Q    Q       Q    Q    Q    E  E     Q.     E  H         
e|---------------------|-----------------------|---------------------|
B|---------------------|-----------------------|---------------------|
G|---------------------|-----------------------|---------------------|
D|-----------9----9----|--L----4----4----------|--5------5--5--------|
A|--2--------7----7----|--L----2----2----0--2--|--3------3--3--------|
E|--0------------------|-----------------------|---------------------|

[Verse Riff 1]                 
                              Em                           
               PM PM PM PM                                 
    E  E  Q    E  E  E  E     Q            Q    Q    Q     
e|-------------------------|------------------------------|
B|-------------------------|------------------------------|
G|-------------------------|-------------------------0----|
D|--7--7-------------------|--------------------2---------|
A|--5--5-------------------|---------------2--------------|
E|-------------5--5--3--2--|--0---------------------------|

                             C7M                    G7M                  
    Q    Q    Q    E   E     Q    Q    Q    Q       Q    Q    Q    Q     
e|--0---------------------|----------------------|----------------------|
B|-------0----------------|-----------------0----|-----------------0----|
G|------------0-----------|------------0---------|------------0---------|
D|------------------------|-------2--------------|-------4--------------|
A|-----------------0h--2--|--3-------------------|--5-------------------|
E|------------------------|----------------------|----------------------|

    Em                                              C7M                  
    Q    Q    Q    Q       Q    Q    Q    E   E     Q    Q    Q    Q     
e|----------------------|--0---------------------|----------------------|
B|----------------------|-------0----------------|-----------------0----|
G|-----------------0----|------------0-----------|------------0---------|
D|------------2---------|------------------------|-------2--------------|
A|-------2--------------|-----------------0h--2--|--3-------------------|
E|--0-------------------|------------------------|----------------------|

    G7M                    Em                                            
    Q    Q    Q    Q       Q    Q    Q    Q       Q    Q    Q    E   E   
e|----------------------|----------------------|--0---------------------|
B|-----------------0----|----------------------|-------0----------------|
G|------------0---------|-----------------0----|------------0-----------|
D|-------4--------------|------------2---------|------------------------|
A|--5-------------------|-------2--------------|-----------------0h--2--|
E|----------------------|--0-------------------|------------------------|

    C7M                    G7M                    Em                   
    Q    Q    Q    Q       Q    Q    Q    Q       Q    Q    Q    Q     
e|----------------------|----------------------|----------------------|
B|-----------------0----|-----------------0----|----------------------|
G|------------0---------|------------0---------|-----------------0----|
D|-------2--------------|-------4--------------|------------2---------|
A|--3-------------------|--5-------------------|-------2--------------|
E|----------------------|----------------------|--0-------------------|

                             C7M                    G7M                  
    Q    Q    Q    E   E     Q    Q    Q    Q       Q    Q    Q    Q     
e|--0---------------------|----------------------|----------------------|
B|-------0----------------|-----------------0----|-----------------0----|
G|------------0-----------|------------0---------|------------0---------|
D|------------------------|-------2--------------|-------4--------------|
A|-----------------0h--2--|--3-------------------|--5-------------------|
E|------------------------|----------------------|----------------------|

[Chorus]                                                              
    H        Q    Q       Q    Q    Q    E  E     Q.     E  H         
e|---------------------|-----------------------|---------------------|
B|---------------------|-----------------------|---------------------|
G|---------------------|-----------------------|---------------------|
D|-----------9----9----|--L----4----4----------|--5------5--5--------|
A|--2--------7----7----|--L----2----2----0--2--|--3------3--3--------|
E|--0------------------|-----------------------|---------------------|

                PM PM PM PM                                                
    E  E  E  E  E  E  E  E     H        Q    Q       Q    Q    Q    E  E   
e|--------------------------|---------------------|-----------------------|
B|--------------------------|---------------------|-----------------------|
G|--------------------------|---------------------|-----------------------|
D|--7--7--7-----------------|-----------9----9----|--L----4----4----------|
A|--5--5--5-----------------|--2--------7----7----|--L----2----2----0--2--|
E|--------------5--5--3--2--|--0------------------|-----------------------|

                                     PM PM PM PM                        
    Q.     E  H           E  E  Q    E  E  E  E     H        Q    Q     
e|---------------------|-------------------------|---------------------|
B|---------------------|-------------------------|---------------------|
G|---------------------|-------------------------|---------------------|
D|--5------5--5--------|--7--7-------------------|-----------9----9----|
A|--3------3--3--------|--5--5-------------------|--2--------7----7----|
E|---------------------|-------------5--5--3--2--|--0------------------|

                                                             PM PM PM PM  
    Q    Q    Q    E  E     Q.     E  H           Q    E.  S E  E  E  E   
e|-----------------------|---------------------|-------------------------|
B|-----------------------|---------------------|-------------------------|
G|-----------------------|---------------------|-------------------------|
D|--L----4----4----------|--5------5--5--------|--7----7-----------------|
A|--L----2----2----0--2--|--3------3--3--------|--5----5-----------------|
E|-----------------------|---------------------|-------------5--5--3--2--|

    H        Q    Q       Q    Q    Q    E  E     Q.     E  H         
e|---------------------|-----------------------|---------------------|
B|---------------------|-----------------------|---------------------|
G|---------------------|-----------------------|---------------------|
D|-----------9----9----|--L----4----4----------|--5------5--5--------|
A|--2--------7----7----|--L----2----2----0--2--|--3------3--3--------|
E|--0------------------|-----------------------|---------------------|

[Break]                                      
    Q    Q    Q       E     E  H.              W                 
e|-----------------|------------------------|-------------------|
B|-----------------|------------------------|-------------------|
G|--9----7----6----|--7-----9--L------------|--L----------------|
D|--7----5----4----|--7-----9--L------------|--L----------------|
A|-----------------|--5-----7--L------------|--L----------------|
E|-----------------|------------------------|-------------------|

    W                   W                   W                   W                 
e|-------------------|-------------------|-------------------|-------------------|
B|-------------------|-------------------|-------------------|-------------------|
G|--7----------------|--L----------------|--5----------------|--7----------------|
D|--7----------------|--L----------------|--5----------------|--7----------------|
A|--5----------------|--L----------------|--3----------------|--5----------------|
E|-------------------|-------------------|-------------------|-------------------|

[Verse Riff 2]      
    W                   H.           E  E     W                 
e|-------------------|---------------------|-------------------|
B|-------------------|---------------------|-------------------|
G|--9----------------|--L------------L--7--|--9----------------|
D|--9----------------|--L------------L--7--|--9----------------|
A|--7----------------|--L------------L--5--|--7----------------|
E|-------------------|---------------------|-------------------|

    W                   W                   W                   W                 
e|-------------------|-------------------|-------------------|-------------------|
B|-------------------|-------------------|-------------------|-------------------|
G|--L----------------|--7----------------|--L----------------|--5----------------|
D|--L----------------|--7----------------|--L----------------|--5----------------|
A|--L----------------|--5----------------|--L----------------|--3----------------|
E|-------------------|-------------------|-------------------|-------------------|

    W                   W                   H.           E  E   
e|-------------------|-------------------|---------------------|
B|-------------------|-------------------|---------------------|
G|--7----------------|--9----------------|--L------------L--7--|
D|--7----------------|--9----------------|--L------------L--7--|
A|--5----------------|--7----------------|--L------------L--5--|
E|-------------------|-------------------|---------------------|

    W                   W                   W                   W                 
e|-------------------|-------------------|-------------------|-------------------|
B|-------------------|-------------------|-------------------|-------------------|
G|--9----------------|--L----------------|--7----------------|--L----------------|
D|--9----------------|--L----------------|--7----------------|--L----------------|
A|--7----------------|--L----------------|--5----------------|--L----------------|
E|-------------------|-------------------|-------------------|-------------------|

    W                   W                   W                 
e|-------------------|-------------------|-------------------|
B|-------------------|-------------------|-------------------|
G|--5----------------|--7----------------|--9----------------|
D|--5----------------|--7----------------|--9----------------|
A|--3----------------|--5----------------|--7----------------|
E|-------------------|-------------------|-------------------|

    H.           E  E     W                   W                 
e|---------------------|-------------------|-------------------|
B|---------------------|-------------------|-------------------|
G|--L------------L--7--|--9----------------|--L----------------|
D|--L------------L--7--|--9----------------|--L----------------|
A|--L------------L--5--|--7----------------|--L----------------|
E|---------------------|-------------------|-------------------|

    W                   W                   W                   W                 
e|-------------------|-------------------|-------------------|-------------------|
B|-------------------|-------------------|-------------------|-------------------|
G|--7----------------|--L----------------|--5----------------|--7----------------|
D|--7----------------|--L----------------|--5----------------|--7----------------|
A|--5----------------|--L----------------|--3----------------|--5----------------|
E|-------------------|-------------------|-------------------|-------------------|

[Interlude]             
    W                   W                    H.             E   E   
e|-------------------|-------------------|-------------------------|
B|-------------------|-------------------|-----------------10--12--|
G|--9----------------|--L----------------|--11b--------------------|
D|--9----------------|--L----------------|-------------------------|
A|--7----------------|--L----------------|-------------------------|
E|-------------------|-------------------|-------------------------|

     Q     E   Q      Q       E      H.           E   E   
e|--------------------------------|----------------------|
B|---L----10----------------------|----------------------|
G|------------12s----16----9g11~--|--L------------9--11--|
D|--------------------------------|----------------------|
A|--------------------------------|----------------------|
E|--------------------------------|----------------------|

    Q    E  Q     Q    E      H.            Q         H          Q.       E    
e|-------------------------|----------------------|---------------------------|
B|-------------------------|----------------------|---------------------------|
G|--L----9--7----11----9~--|--L------------11b----|--14b--------12b------11b--|
D|-------------------------|----------------------|---------------------------|
A|-------------------------|----------------------|---------------------------|
E|-------------------------|----------------------|---------------------------|

     W                   W                    H.             E   E   
e|--------------------|-------------------|-------------------------|
B|--------------------|-------------------|-----------------10--12--|
G|---L----------------|--L----------------|--11b--------------------|
D|--------------------|-------------------|-------------------------|
A|--------------------|-------------------|-------------------------|
E|--------------------|-------------------|-------------------------|

     Q     E   Q      Q       E      H.           E   E   
e|--------------------------------|----------------------|
B|---L----10----------------------|----------------------|
G|------------12s----16----9g11~--|--L------------9--11--|
D|--------------------------------|----------------------|
A|--------------------------------|----------------------|
E|--------------------------------|----------------------|

    Q    E  Q     Q    E      H.            Q         H          Q.       E    
e|-------------------------|----------------------|---------------------------|
B|-------------------------|----------------------|---------------------------|
G|--L----9--7----11----9~--|--L------------11b----|--14b--------12b------11b--|
D|-------------------------|----------------------|---------------------------|
A|-------------------------|----------------------|---------------------------|
E|-------------------------|----------------------|---------------------------|

     W                   H.           E  E   
e|--------------------|---------------------|
B|--------------------|---------------------|
G|---L----------------|--L------------------|
D|--------------------|------------------9--|
A|--------------------|------------------7--|
E|--------------------|---------------------|

[Solo Adrian Smith]                                                
                      PM    PM PM    PM PM       PM PM               
    E                 E  E  E  E  E  E  E     E  E  E  Q    Q    E   
e|-----------------------------------------|------------------------|
B|-----------------------------------------|------------------------|
G|-----------------------------------------|------------------------|
D|--L--------------------9--------9--------|--9--------9----9----4--|
A|--L-----------------7--7--7--7--7--7--7--|--7--7--7--7----7----2--|
E|-----------------------------------------|------------------------|

       PM    PM PM    PM PM       PM PM                    PM    PM PM    PM     
    E  E  E  E  E  E  E  E     E  E  E  Q    Q    E     E  E  E  E  E  E  E  E   
e|--------------------------|------------------------|--------------------------|
B|--------------------------|------------------------|--------------------------|
G|--------------------------|------------------------|--------------------------|
D|--L-----4--------4--------|--4--------4----4----5--|--L-----5--------5-----7--|
A|--L--2--2--2--2--2--2--2--|--2--2--2--2----2----3--|--L--3--3--3--3--3--3--5--|
E|--------------------------|------------------------|--------------------------|

       PM    PM PM    PM          PM    PM PM    PM PM  
    E  E  E  E  E  E  E  E     E  E  E  E  E  E  E  E   
e|--------------------------|--------------------------|
B|--------------------------|--------------------------|
G|--------------------------|--------------------------|
D|--L-----7--------7-----9--|--L-----9--------9--------|
A|--L--5--5--5--5--5--5--7--|--L--7--7--7--7--7--7--7--|
E|--------------------------|--------------------------|

                                  PM    PM PM    PM PM       PM PM               
    E  E  E  E  E  E  E  E     E  E  E  E  E  E  E  E     E  E  E  Q    Q    E   
e|--------------------------|--------------------------|------------------------|
B|--------------------------|--------------------------|------------------------|
G|--------------------------|--------------------------|------------------------|
D|--9--9-----7--7-----9--9--|--L-----9--------9--------|--9--------9----9----4--|
A|--7--7-----5--5-----7--7--|--L--7--7--7--7--7--7--7--|--7--7--7--7----7----2--|
E|--------------------------|--------------------------|------------------------|

       PM    PM PM    PM PM       PM PM                    PM    PM PM    PM     
    E  E  E  E  E  E  E  E     E  E  E  Q    Q    E     E  E  E  E  E  E  E  E   
e|--------------------------|------------------------|--------------------------|
B|--------------------------|------------------------|--------------------------|
G|--------------------------|------------------------|--------------------------|
D|--L-----4--------4--------|--4--------4----4----5--|--L-----5--------5-----7--|
A|--L--2--2--2--2--2--2--2--|--2--2--2--2----2----3--|--L--3--3--3--3--3--3--5--|
E|--------------------------|------------------------|--------------------------|

       PM    PM PM    PM          PM    PM PM    PM PM                          
    E  E  E  E  E  E  E  E     E  E  E  E  E  E  E  E     S S S S Q    S S S S  
e|--------------------------|--------------------------|-----------------------|
B|--------------------------|--------------------------|-----------------------|
G|--------------------------|--------------------------|-----------------------|
D|--L-----7--------7-----9--|--L-----9--------9--------|--9-9-9-9-9----7-7-7-7-|
A|--L--5--5--5--5--5--5--7--|--L--7--7--7--7--7--7--7--|--7-7-7-7-7----5-5-5-5-|
E|--------------------------|--------------------------|-----------------------|

[Chorus]                                                      
    E     W                   W                   W                 
e|-----|-------------------|-------------------|-------------------|
B|-----|-------------------|-------------------|-------------------|
G|-----|--9----------------|--L----------------|--7----------------|
D|--7--|--9----------------|--L----------------|--7----------------|
A|--5--|--7----------------|--L----------------|--5----------------|
E|-----|-------------------|-------------------|-------------------|

    W                   W                   W                   W                 
e|-------------------|-------------------|-------------------|-------------------|
B|-------------------|-------------------|-------------------|-------------------|
G|--L----------------|--5----------------|--L----------------|--7----------------|
D|--L----------------|--5----------------|--L----------------|--7----------------|
A|--L----------------|--3----------------|--L----------------|--5----------------|
E|-------------------|-------------------|-------------------|-------------------|

    W                   W                   W                   W                 
e|-------------------|-------------------|-------------------|-------------------|
B|-------------------|-------------------|-------------------|-------------------|
G|--L----------------|--9----------------|--L----------------|--7----------------|
D|--L----------------|--9----------------|--L----------------|--7----------------|
A|--L----------------|--7----------------|--L----------------|--5----------------|
E|-------------------|-------------------|-------------------|-------------------|

    W                   W                   W                   W                 
e|-------------------|-------------------|-------------------|-------------------|
B|-------------------|-------------------|-------------------|-------------------|
G|--L----------------|--5----------------|--L----------------|--7----------------|
D|--L----------------|--5----------------|--L----------------|--7----------------|
A|--L----------------|--3----------------|--L----------------|--5----------------|
E|-------------------|-------------------|-------------------|-------------------|

[Verse Riff 3]                                              
    W                   W                   W                   W                 
e|-------------------|-------------------|-------------------|-------------------|
B|-------------------|-------------------|-------------------|-------------------|
G|--L----------------|--9----------------|--L----------------|--7----------------|
D|--L----------------|--9----------------|--L----------------|--7----------------|
A|--L----------------|--7----------------|--L----------------|--5----------------|
E|-------------------|-------------------|-------------------|-------------------|

    W                   W                   W                   W                 
e|-------------------|-------------------|-------------------|-------------------|
B|-------------------|-------------------|-------------------|-------------------|
G|--L----------------|--5----------------|--L----------------|--7----------------|
D|--L----------------|--5----------------|--L----------------|--7----------------|
A|--L----------------|--3----------------|--L----------------|--5----------------|
E|-------------------|-------------------|-------------------|-------------------|

    W                   W                   W                   W                 
e|-------------------|-------------------|-------------------|-------------------|
B|-------------------|-------------------|-------------------|-------------------|
G|--L----------------|--9----------------|--L----------------|--7----------------|
D|--L----------------|--9----------------|--L----------------|--7----------------|
A|--L----------------|--7----------------|--L----------------|--5----------------|
E|-------------------|-------------------|-------------------|-------------------|

[Outro]             
    W                   W                   W                   W                 
e|-------------------|-------------------|-------------------|-------------------|
B|-------------------|-------------------|-------------------|-------------------|
G|--L----------------|--5----------------|--L----------------|--7----------------|
D|--L----------------|--5----------------|--L----------------|--7----------------|
A|--L----------------|--3----------------|--L----------------|--5----------------|
E|-------------------|-------------------|-------------------|-------------------|

    Q    Q    Q    Q       Q    H.              W                 
e|----------------------|--------------------|-------------------|
B|----------------------|--------------------|-------------------|
G|--L----9----7---------|-------9------------|--L----------------|
D|--L----9----7----5----|--7----9------------|--L----------------|
A|--L----7----5----5----|--7----7------------|--L----------------|
E|-----------------3----|--5-----------------|-------------------|

    W                   Q    Q    E  Q     E    
e|-------------------|------------------------|
B|-------------------|------------------------|
G|--L----------------|--L---------9--L\-------|
D|--L----------------|--L---------9--L\-------|
A|--L----------------|--L---------7--L\-------|
E|-------------------|------------------------|


Guitar #3:
Janick Gers

[Intro]                                           
          Em                      G                       
          ^                                               
     S    H        E  E  E  E     Q    E  E  E  E  E  E   
e|----|--0--------0-----------|-------------3-----------|
B|----|--0-----------0--------|----------3-----3--------|
G|----|--0--------------0-----|-------0-----------0-----|
D|----|--2-----------------2--|----------------------0--|
A|----|--2--------------------|-------------------------|
E|----|--0--------------------|--3----------------------|

    D                       C           D              Em                    
    ^                       ^           ^              ^                     
    H        E  E  E  E     E  E  E  E  E  E  E  E     H        E  E  E  E   
e|-----------2-----------|-----0-----------2--------|--0--------0-----------|
B|--------------3--------|--1-----1-----3-----3-----|--0-----------0--------|
G|--2--------------2--0--|--0--------0--2--------2--|--0--------------0-----|
D|--0--------------------|--2-----------0-----------|--2-----------------2--|
A|-----------------------|--3-----------------------|--2--------------------|
E|-----------------------|--------------------------|--0--------------------|

    G                         D                       C           D            
                              ^                       ^           ^            
    Q    E  E  E  E  E  E     H        E  E  E  E     E  E  E  E  E  E  E  E   
e|-------------3-----------|-----------2-----------|-----0-----------2--------|
B|----------3-----3--------|--------------3--------|--1-----1-----3-----3-----|
G|-------0-----------0-----|--2--------------2--0--|--0--------0--2--------2--|
D|----------------------0--|--0--------------------|--2-----------0-----------|
A|-------------------------|-----------------------|--3-----------------------|
E|--3----------------------|-----------------------|--------------------------|

[Intro Solo]                                                               
    Em                        G                         D                     
    ^                                                   ^                     
    H          E  E  E  E     Q    E  E  E  E  E  E     H        E  E  E  E   
e|--0----------0-----------|-------------3-----------|-----------2-----------|
B|--0-------------0--------|----------3-----3--------|--------------3--------|
G|--0----------------0-----|-------0-----------0-----|--2--------------2--0--|
D|--2-------------------2--|----------------------0--|--0--------------------|
A|--2----------------------|-------------------------|-----------------------|
E|--0----------------------|--3----------------------|-----------------------|

    C           D              Em                      G                       
    ^           ^              ^                                               
    E  E  E  E  E  E  E  E     H        E  E  E  E     Q    E  E  E  E  E  E   
e|-----0-----------2--------|--0--------0-----------|-------------3-----------|
B|--1-----1-----3-----3-----|--0-----------0--------|----------3-----3--------|
G|--0--------0--2--------2--|--0--------------0-----|-------0-----------0-----|
D|--2-----------0-----------|--2-----------------2--|----------------------0--|
A|--3-----------------------|--2--------------------|-------------------------|
E|--------------------------|--0--------------------|--3----------------------|

    D                       C           D            
    ^                       ^           ^            
    H        E  E  E  E     E  E  E  E  E  E  E  E   
e|-----------2-----------|-----0-----------2--------|
B|--------------3--------|--1-----1-----3-----3-----|
G|--2--------------2--0--|--0--------0--2--------2--|
D|--0--------------------|--2-----------0-----------|
A|-----------------------|--3-----------------------|
E|-----------------------|--------------------------|

[Verse Riff 1]                                                                 
    Em                                                      C7M                  
    Q            Q    Q    Q       Q    Q    Q    E   E     Q    Q    Q    Q     
e|------------------------------|--0---------------------|----------------------|
B|------------------------------|-------0----------------|-----------------0----|
G|-------------------------0----|------------0-----------|------------0---------|
D|--------------------2---------|------------------------|-------2--------------|
A|---------------2--------------|-----------------0h--2--|--3-------------------|
E|--0---------------------------|------------------------|----------------------|

    G7M                    Em                                            
    Q    Q    Q    Q       Q    Q    Q    Q       Q    Q    Q    E   E   
e|----------------------|----------------------|--0---------------------|
B|-----------------0----|----------------------|-------0----------------|
G|------------0---------|-----------------0----|------------0-----------|
D|-------4--------------|------------2---------|------------------------|
A|--5-------------------|-------2--------------|-----------------0h--2--|
E|----------------------|--0-------------------|------------------------|

    C7M                    G7M                    Em                   
    Q    Q    Q    Q       Q    Q    Q    Q       Q    Q    Q    Q     
e|----------------------|----------------------|----------------------|
B|-----------------0----|-----------------0----|----------------------|
G|------------0---------|------------0---------|-----------------0----|
D|-------2--------------|-------4--------------|------------2---------|
A|--3-------------------|--5-------------------|-------2--------------|
E|----------------------|----------------------|--0-------------------|

                             C                      G7M                  
    Q    Q    Q    E   E     Q    Q    Q    Q       Q    Q    Q    Q     
e|--0---------------------|----------------------|----------------------|
B|-------0----------------|-----------------0----|-----------------0----|
G|------------0-----------|------------0---------|------------0---------|
D|------------------------|-------2--------------|-------4--------------|
A|-----------------0h--2--|--3-------------------|--5-------------------|
E|------------------------|----------------------|----------------------|

    Em                                              C7M                  
    Q    Q    Q    Q       Q    Q    Q    E   E     Q    Q    Q    Q     
e|----------------------|--0---------------------|----------------------|
B|----------------------|-------0----------------|-----------------0----|
G|-----------------0----|------------0-----------|------------0---------|
D|------------2---------|------------------------|-------2--------------|
A|-------2--------------|-----------------0h--2--|--3-------------------|
E|--0-------------------|------------------------|----------------------|

[Chorus]                                       
    G7M                                                                
    Q    Q    Q    Q       H        Q    Q       Q    Q    Q    E  E   
e|----------------------|---------------------|-----------------------|
B|-----------------0----|---------------------|-----------------------|
G|------------0---------|---------------------|-----------------------|
D|-------4--------------|-----------9----9----|--L----4----4----------|
A|--5-------------------|--2--------7----7----|--L----2----2----0--2--|
E|----------------------|--0------------------|-----------------------|

                                    PM PM PM PM                        
    W                   E  E  E  E  E  E  E  E     H        Q    Q     
e|-------------------|--------------------------|---------------------|
B|-------------------|--------------------------|---------------------|
G|-------------------|--------------------------|---------------------|
D|--5----------------|--7--7--7-----------------|-----------9----9----|
A|--3----------------|--5--5--5-----7--7--------|--2--------7----7----|
E|-------------------|--------------5--5--3--2--|--0------------------|

                                                           PM PM PM PM  
    Q    Q    Q    E  E     W                   E  E  Q    E  E  E  E   
e|-----------------------|-------------------|-------------------------|
B|-----------------------|-------------------|-------------------------|
G|-----------------------|-------------------|-------------------------|
D|--L----4----4----------|--5----------------|--7--7-------------------|
A|--L----2----2----0--2--|--3----------------|--5--5-------7--7--------|
E|-----------------------|-------------------|-------------5--5--3--2--|

    H        Q    Q       Q    Q    Q    E  E     W                 
e|---------------------|-----------------------|-------------------|
B|---------------------|-----------------------|-------------------|
G|---------------------|-----------------------|-------------------|
D|-----------9----9----|--L----4----4----------|--5----------------|
A|--2--------7----7----|--L----2----2----0--2--|--3----------------|
E|--0------------------|-----------------------|-------------------|

               PM PM PM PM                                                
    Q    E.  S E  E  E  E     H        Q    Q       Q    Q    Q    E  E   
e|-------------------------|---------------------|-----------------------|
B|-------------------------|---------------------|-----------------------|
G|-------------------------|---------------------|-----------------------|
D|--7----7-----------------|-----------9----9----|--L----4----4----------|
A|--5----5-----7--7--------|--2--------7----7----|--L----2----2----0--2--|
E|-------------5--5--3--2--|--0------------------|-----------------------|

[Verse Riff 1]                 
                                                  Em                           
                                   PM PM PM PM                                 
    W                   E  E  Q    E  E  E  E     Q            Q    Q    Q     
e|-------------------|-------------------------|------------------------------|
B|-------------------|-------------------------|------------------------------|
G|-------------------|-------------------------|-------------------------0----|
D|--5----------------|--7--7-------------------|--------------------2---------|
A|--3----------------|--5--5-------7--7--------|---------------2--------------|
E|-------------------|-------------5--5--3--2--|--0---------------------------|

                             C7M                    G7M                  
    Q    Q    Q    E   E     Q    Q    Q    Q       Q    Q    Q    Q     
e|--0---------------------|----------------------|----------------------|
B|-------0----------------|-----------------0----|-----------------0----|
G|------------0-----------|------------0---------|------------0---------|
D|------------------------|-------2--------------|-------4--------------|
A|-----------------0h--2--|--3-------------------|--5-------------------|
E|------------------------|----------------------|----------------------|

    Em                                              C7M                  
    Q    Q    Q    Q       Q    Q    Q    E   E     Q    Q    Q    Q     
e|----------------------|--0---------------------|----------------------|
B|----------------------|-------0----------------|-----------------0----|
G|-----------------0----|------------0-----------|------------0---------|
D|------------2---------|------------------------|-------2--------------|
A|-------2--------------|-----------------0h--2--|--3-------------------|
E|--0-------------------|------------------------|----------------------|

    G7M                    Em                                            
    Q    Q    Q    Q       Q    Q    Q    Q       Q    Q    Q    E   E   
e|----------------------|----------------------|--0---------------------|
B|-----------------0----|----------------------|-------0----------------|
G|------------0---------|-----------------0----|------------0-----------|
D|-------4--------------|------------2---------|------------------------|
A|--5-------------------|-------2--------------|-----------------0h--2--|
E|----------------------|--0-------------------|------------------------|

    C7M                    G7M                    Em                   
    Q    Q    Q    Q       Q    Q    Q    Q       Q    Q    Q    Q     
e|----------------------|----------------------|----------------------|
B|-----------------0----|-----------------0----|----------------------|
G|------------0---------|------------0---------|-----------------0----|
D|-------2--------------|-------4--------------|------------2---------|
A|--3-------------------|--5-------------------|-------2--------------|
E|----------------------|----------------------|--0-------------------|

                             C7M                    G7M                  
    Q    Q    Q    E   E     Q    Q    Q    Q       Q    Q    Q    Q     
e|--0---------------------|----------------------|----------------------|
B|-------0----------------|-----------------0----|-----------------0----|
G|------------0-----------|------------0---------|------------0---------|
D|------------------------|-------2--------------|-------4--------------|
A|-----------------0h--2--|--3-------------------|--5-------------------|
E|------------------------|----------------------|----------------------|

[Chorus]                                                            
    H        Q    Q       Q    Q    Q    E  E     W                 
e|---------------------|-----------------------|-------------------|
B|---------------------|-----------------------|-------------------|
G|---------------------|-----------------------|-------------------|
D|-----------9----9----|--L----4----4----------|--5----------------|
A|--2--------7----7----|--L----2----2----0--2--|--3----------------|
E|--0------------------|-----------------------|-------------------|

                PM PM PM PM                                                
    E  E  E  E  E  E  E  E     H        Q    Q       Q    Q    Q    E  E   
e|--------------------------|---------------------|-----------------------|
B|--------------------------|---------------------|-----------------------|
G|--------------------------|---------------------|-----------------------|
D|--7--7--7-----------------|-----------9----9----|--L----4----4----------|
A|--5--5--5-----7--7--------|--2--------7----7----|--L----2----2----0--2--|
E|--------------5--5--3--2--|--0------------------|-----------------------|

                                   PM PM PM PM                        
    W                   E  E  Q    E  E  E  E     H        Q    Q     
e|-------------------|-------------------------|---------------------|
B|-------------------|-------------------------|---------------------|
G|-------------------|-------------------------|---------------------|
D|--5----------------|--7--7-------------------|-----------9----9----|
A|--3----------------|--5--5-------7--7--------|--2--------7----7----|
E|-------------------|-------------5--5--3--2--|--0------------------|

                                                           PM PM PM PM  
    Q    Q    Q    E  E     W                   Q    E.  S E  E  E  E   
e|-----------------------|-------------------|-------------------------|
B|-----------------------|-------------------|-------------------------|
G|-----------------------|-------------------|-------------------------|
D|--L----4----4----------|--5----------------|--7----7-----------------|
A|--L----2----2----0--2--|--3----------------|--5----5-----7--7--------|
E|-----------------------|-------------------|-------------5--5--3--2--|

    H        Q    Q       Q    Q    Q    E  E     W                 
e|---------------------|-----------------------|-------------------|
B|---------------------|-----------------------|-------------------|
G|---------------------|-----------------------|-------------------|
D|-----------9----9----|--L----4----4----------|--5----------------|
A|--2--------7----7----|--L----2----2----0--2--|--3----------------|
E|--0------------------|-----------------------|-------------------|

[Break]                                      
    Q    Q    Q       E     E  H.              W                 
e|-----------------|------------------------|-------------------|
B|-----------------|------------------------|-------------------|
G|-----------------|--7-----9--L------------|--L----------------|
D|-----------------|--7-----9--L------------|--L----------------|
A|--7----5----4----|--5-----7--L------------|--L----------------|
E|--5----3----2----|------------------------|-------------------|

    W                   W                   W                   W                 
e|-------------------|-------------------|-------------------|-------------------|
B|-------------------|-------------------|-------------------|-------------------|
G|--7----------------|--L----------------|--5----------------|--7----------------|
D|--7----------------|--L----------------|--5----------------|--7----------------|
A|--5----------------|--L----------------|--3----------------|--5----------------|
E|-------------------|-------------------|-------------------|-------------------|

[Verse Riff 2]        
    W                   H.           E  E       H.           E  E   
e|-------------------|---------------------|-----------------------|
B|-------------------|---------------------|-----------------------|
G|--9----------------|--L------------L-----|-----------------------|
D|--9----------------|--L------------L-----|--------------------4--|
A|--7----------------|--L------------L--5--|--5g7------------L-----|
E|-------------------|---------------------|-----------------------|

      Q.     Q    Q    E       H.           E  E       Q.     E  Q    Q     
e|------------------------|-----------------------|------------------------|
B|------------------------|-----------------------|------------------------|
G|------------------------|-----------------------|------------------------|
D|--4g5------4------------|--------------------4--|--4g5------4------------|
A|----------------7----5--|--5g7------------L-----|--------------7----5----|
E|------------------------|-----------------------|------------------------|

      H        E  Q.        H        E  Q    E     W                 
e|-----------------------|----------------------|-------------------|
B|-----------------------|----------------------|-------------------|
G|--2g4--------L--5------|--------------4-------|-------------------|
D|-----------------------|--7--------L-------5--|-------------------|
A|-----------------------|----------------------|--7----------------|
E|-----------------------|----------------------|-------------------|

    H.           E  E       H.           E  E       Q.     Q    Q    E   
e|---------------------|-----------------------|------------------------|
B|---------------------|-----------------------|------------------------|
G|---------------------|-----------------------|------------------------|
D|---------------------|--------------------4--|--4g5------4------------|
A|--L------------L--5--|--5g7------------L-----|----------------7----5--|
E|---------------------|-----------------------|------------------------|

      H.           E  E       Q.     E  Q    Q         H        E  Q.      
e|-----------------------|------------------------|-----------------------|
B|-----------------------|------------------------|-----------------------|
G|-----------------------|------------------------|--2g4--------L--5------|
D|--------------------4--|--4g5------4------------|-----------------------|
A|--5g7------------L-----|--------------7----5----|-----------------------|
E|-----------------------|------------------------|-----------------------|

    H        E  Q    E     W                   H.           E  E   
e|----------------------|-------------------|---------------------|
B|----------------------|-------------------|---------------------|
G|--------------4-------|-------------------|---------------------|
D|--7--------L-------5--|--4----------------|--L------------L-----|
A|----------------------|-------------------|------------------5--|
E|----------------------|-------------------|---------------------|

      H.           E  E       Q.     Q    Q    E       H.           E  E   
e|-----------------------|------------------------|-----------------------|
B|-----------------------|------------------------|-----------------------|
G|-----------------------|------------------------|-----------------------|
D|--------------------4--|--4g5------4------------|--------------------4--|
A|--5g7------------L-----|----------------7----5--|--5g7------------L-----|
E|-----------------------|------------------------|-----------------------|

      Q.     E  Q    Q         H        E  Q.        H        E  Q    E   
e|------------------------|-----------------------|----------------------|
B|------------------------|-----------------------|----------------------|
G|------------------------|--2g4--------L--5------|--------------4-------|
D|--4g5------4------------|-----------------------|--7--------L-------5--|
A|--------------7----5----|-----------------------|----------------------|
E|------------------------|-----------------------|----------------------|

[Interlude]               
    W                   W                     H.             E   E     
e|-------------------|-------------------|----------------------------|
B|-------------------|-------------------|----------------------------|
G|-------------------|-------------------|--7g9~------------11--11br--|
D|-------------------|-------------------|----------------------------|
A|--7----------------|--L----------------|----------------------------|
E|-------------------|-------------------|----------------------------|

     Q.     H          E      H.           E  E       H        E.  E.  E    
e|-------------------------|-----------------------|-----------------------|
B|-------------------------|-----------------------|-----------------------|
G|---L------7br--------4~--|--L------------5--5br--|--L--------4---7---5~--|
D|-------------------------|-----------------------|-----------------------|
A|-------------------------|-----------------------|-----------------------|
E|-------------------------|-----------------------|-----------------------|

    H.           Q         H         Q.      E      W                 
e|---------------------|-------------------------|-------------------|
B|---------------------|-------------------------|-------------------|
G|--L------------7b----|--10b--------9b------7b--|--L----------------|
D|---------------------|-------------------------|-------------------|
A|---------------------|-------------------------|-------------------|
E|---------------------|-------------------------|-------------------|

    W                     H.             E   E        Q.     H          E    
e|-------------------|----------------------------|-------------------------|
B|-------------------|----------------------------|-------------------------|
G|--L----------------|--7g9~------------11--11br--|---L------7br--------4~--|
D|-------------------|----------------------------|-------------------------|
A|-------------------|----------------------------|-------------------------|
E|-------------------|----------------------------|-------------------------|

    H.           E  E       H        E.  E.  E      H.           Q      
e|-----------------------|-----------------------|---------------------|
B|-----------------------|-----------------------|---------------------|
G|--L------------5--5br--|--L--------4---7---5~--|--L------------7b----|
D|-----------------------|-----------------------|---------------------|
A|-----------------------|-----------------------|---------------------|
E|-----------------------|-----------------------|---------------------|

     H         Q.      E      W                   H.           E  E   
e|-------------------------|-------------------|---------------------|
B|-------------------------|-------------------|---------------------|
G|--10b--------9b------7b--|--L----------------|--L------------------|
D|-------------------------|-------------------|------------------2--|
A|-------------------------|-------------------|------------------2--|
E|-------------------------|-------------------|------------------0--|

[Solo Adrian Smith]                                                
                      PM    PM PM    PM PM       PM PM               
    E                 E  E  E  E  E  E  E     E  E  E  Q    Q    E   
e|-----------------------------------------|------------------------|
B|-----------------------------------------|------------------------|
G|-----------------------------------------|------------------------|
D|--L--------------------------------------|---------------------4--|
A|--L--------------------2--------2--------|--2--------2----2----2--|
E|--L-----------------0--0--0--0--0--0--0--|--0--0--0--0----0-------|

       PM    PM PM    PM PM       PM PM                    PM    PM PM    PM     
    E  E  E  E  E  E  E  E     E  E  E  Q    Q    E     E  E  E  E  E  E  E  E   
e|--------------------------|------------------------|--------------------------|
B|--------------------------|------------------------|--------------------------|
G|--------------------------|------------------------|--------------------------|
D|--L-----4--------4--------|--4--------4----4----5--|--L-----5--------5-----7--|
A|--L--2--2--2--2--2--2--2--|--2--2--2--2----2----3--|--L--3--3--3--3--3--3--5--|
E|--------------------------|------------------------|--------------------------|

       PM    PM PM    PM          PM    PM PM    PM PM  
    E  E  E  E  E  E  E  E     E  E  E  E  E  E  E  E   
e|--------------------------|--------------------------|
B|--------------------------|--------------------------|
G|--------------------------|--------------------------|
D|--L-----7--------7-----2--|--L-----------------------|
A|--L--5--5--5--5--5--5--2--|--L-----2--------2--------|
E|-----------------------0--|--L--0--0--0--0--0--0--0--|

                                  PM    PM PM    PM PM       PM PM               
    E  E  E  E  E  E  E  E     E  E  E  E  E  E  E  E     E  E  E  Q    Q    E   
e|--------------------------|--------------------------|------------------------|
B|--------------------------|--------------------------|------------------------|
G|--------------------------|--------------------------|------------------------|
D|-----------7--7--------2--|--L-----------------------|---------------------4--|
A|--2--2-----5--5-----2--2--|--L-----2--------2--------|--2--------2----2----2--|
E|--0--0--------------0--0--|--L--0--0--0--0--0--0--0--|--0--0--0--0----0-------|

       PM    PM PM    PM PM       PM PM                    PM    PM PM    PM     
    E  E  E  E  E  E  E  E     E  E  E  Q    Q    E     E  E  E  E  E  E  E  E   
e|--------------------------|------------------------|--------------------------|
B|--------------------------|------------------------|--------------------------|
G|--------------------------|------------------------|--------------------------|
D|--L-----4--------4--------|--4--------4----4----5--|--L-----5--------5-----7--|
A|--L--2--2--2--2--2--2--2--|--2--2--2--2----2----3--|--L--3--3--3--3--3--3--5--|
E|--------------------------|------------------------|--------------------------|

       PM    PM PM    PM          PM    PM PM    PM PM                          
    E  E  E  E  E  E  E  E     E  E  E  E  E  E  E  E     S S S S Q    S S S S  
e|--------------------------|--------------------------|-----------------------|
B|--------------------------|--------------------------|-----------------------|
G|--------------------------|--------------------------|-----------------------|
D|--L-----7--------7-----2--|--L-----------------------|---------------7-7-7-7-|
A|--L--5--5--5--5--5--5--2--|--L-----2--------2--------|--2-2-2-2-2----5-5-5-5-|
E|-----------------------0--|--L--0--0--0--0--0--0--0--|--0-0-0-0-0------------|

[Chorus]                                                                
    E     H.           E  E     E    Q    Q    Q    E     H.           E  E   
e|-----|---------------------|-------------------------|---------------------|
B|-----|---------------------|-------------------------|---------------------|
G|-----|---------------------|-------------------------|---------------------|
D|--7--|------------------4--|--L--4g5----4------------|------------------4--|
A|--5--|--7------------L-----|-----------------7----5--|--7------------L-----|
E|-----|---------------------|-------------------------|---------------------|

    E    Q    Q    Q    E     H.           E  E     E    Q    Q    Q    E   
e|-------------------------|---------------------|-------------------------|
B|-------------------------|---------------------|-------------------------|
G|-------------------------|---------------------|-------------------------|
D|--L--4g5----4------------|------------------4--|--L--4g5----4---------4--|
A|-----------------7----5--|--7------------L-----|-----------------7-------|
E|-------------------------|---------------------|-------------------------|

    H.           E  E     E    Q    Q    Q    E     H.           E  E   
e|---------------------|-------------------------|---------------------|
B|---------------------|-------------------------|---------------------|
G|---------------------|-------------------------|---------------------|
D|------------------4--|--L--4g5----4---------4--|------------------4--|
A|--5------------L-----|-----------------7-------|--7------------L-----|
E|---------------------|-------------------------|---------------------|

    E    Q    Q    Q    E     H.           E  E     E    Q    Q    Q    E   
e|-------------------------|---------------------|-------------------------|
B|-------------------------|---------------------|-------------------------|
G|-------------------------|---------------------|-------------------------|
D|--L--4g5----4------------|------------------4--|--L--4g5----4------------|
A|-----------------7----5--|--7------------L-----|-----------------7----5--|
E|-------------------------|---------------------|-------------------------|

    H.           E  E     E    Q    Q    Q    E     H.           E  E   
e|---------------------|-------------------------|---------------------|
B|---------------------|-------------------------|---------------------|
G|---------------------|-------------------------|---------------------|
D|------------------4--|--L--4g5----4---------4--|------------------5--|
A|--7------------L-----|-----------------7-------|--5------------L-----|
E|---------------------|-------------------------|---------------------|

[Verse Riff 3]                                  
    E  E   E  Q    Q    E     H.           E  E     E  E   E  Q    Q    E   
e|-------------------------|---------------------|-------------------------|
B|-------------------------|---------------------|-------------------------|
G|-------------------------|---------------------|-------------------------|
D|--7--7s--9--7----5----4--|--5------------L--5--|--7--7s--9--7----5----4--|
A|-------------------------|---------------------|-------------------------|
E|-------------------------|---------------------|-------------------------|

    H.           E  E     E  E   E  Q    Q    E     H.           E  E   
e|---------------------|-------------------------|---------------------|
B|---------------------|-------------------------|---------------------|
G|---------------------|-------------------------|---------------------|
D|--5------------L--5--|--7--7s--9--7----5----4--|--4------------L--5--|
A|---------------------|-------------------------|---------------------|
E|---------------------|-------------------------|---------------------|

    E  E   E  Q    Q    E     H.           E  E     E  E   E  Q    Q    E   
e|-------------------------|---------------------|-------------------------|
B|-------------------------|---------------------|-------------------------|
G|-------------------------|---------------------|-------------------------|
D|--5--5s--7--5----4----5--|------------------5--|--7--7s--9--7----5----4--|
A|-------------------------|--5------------L-----|-------------------------|
E|-------------------------|---------------------|-------------------------|

    H.           E  E     E  E   E  Q    Q    E     H.           E  E   
e|---------------------|-------------------------|---------------------|
B|---------------------|-------------------------|---------------------|
G|---------------------|-------------------------|---------------------|
D|--5------------L--5--|--7--7s--9--7----5----4--|--5------------L--5--|
A|---------------------|-------------------------|---------------------|
E|---------------------|-------------------------|---------------------|

    E  E   E  Q    Q    E     H.           E  E     E  E   E  Q    Q    E   
e|-------------------------|---------------------|-------------------------|
B|-------------------------|---------------------|-------------------------|
G|-------------------------|---------------------|-------------------------|
D|--7--7s--9--7----5----4--|--4------------L--5--|--5--5s--7--5----4----5--|
A|-------------------------|---------------------|-------------------------|
E|-------------------------|---------------------|-------------------------|

[Outro]                                                          
    W                   Q    Q    Q    Q       Q    H.             
e|-------------------|----------------------|---------------------|
B|-------------------|----------------------|---------------------|
G|-------------------|----------------------|---------------------|
D|-------------------|-------5----4---------|-------4~------------|
A|--5----------------|--L-------------------|---------------------|
E|-------------------|-----------------3----|--5------------------|

    W                   W                   Q    Q    E  Q     E    
e|-------------------|-------------------|------------------------|
B|-------------------|-------------------|------------------------|
G|-------------------|-------------------|------------9--L\-------|
D|--L----------------|--L----------------|--L---------9--L\-------|
A|-------------------|-------------------|------------7--L\-------|
E|-------------------|-------------------|------------------------|


Voice Melody:
Bruce Dickinson

[Verse Riff 1]                  
                  HE?S     WAL          KING             
    H.            Q        Q            H         E  E   
e|---------------12----|--12-----------12---------L-----|
B|---------------------|--------------------------------|
G|---------------------|--------------------------------|
D|---------------------|--------------------------------|
A|---------------------|--------------------------------|
E|---------------------|--------------------------------|

          LIKE  A     SMALL          CHILD                             BUT 
    Q     Q     Q     Q        Q     Q.     Q.        H        Q.      E   
e|-------12----10----------|-----------------------|------------------10--|
B|-------------------10----|---L----12-------------|----------------------|
G|-------------------------|-----------------------|----------------------|
D|-------------------------|-----------------------|----------------------|
A|-------------------------|-----------------------|----------------------|
E|-------------------------|-----------------------|----------------------|

     WATCH HIS    EYES                 BURN  YOU A   WAY                          
     Q     S   S  H        E     Q     Q     E   E   Q        Q.     E  H         
e|--12----10---L-12-----------|-------12----10------------|----------------------|
B|----------------------------|-----------------12--12----|---L------------------|
G|----------------------------|---------------------------|----------------------|
D|----------------------------|---------------------------|----------------------|
A|----------------------------|---------------------------|----------------------|
E|----------------------------|---------------------------|----------------------|

                         BLACK     HOLES                    IN    HIS   GOL   
    W                    E     E   H         E  E     Q     Q     Q     Q     
e|-------------------|--12-----L--12---------L-----|-------12----10----------|
B|-------------------|-----------------------------|-------------------10----|
G|-------------------|-----------------------------|-------------------------|
D|-------------------|-----------------------------|-------------------------|
A|-------------------|-----------------------------|-------------------------|
E|-------------------|-----------------------------|-------------------------|

           DEN     STARE                            GOD       KNOWS     HE    
     Q     E   E   H           W                    H         E     E   Q     
e|--------------------------|-------------------|--19------------------------|
B|---L----12---L--12--------|-------------------|------------17-----L--17----|
G|--------------------------|-------------------|----------------------------|
D|--------------------------|-------------------|----------------------------|
A|--------------------------|-------------------|----------------------------|
E|--------------------------|-------------------|----------------------------|

     WANTS     TO  GO         HOME               
     H         E   Q.         H.           Q     
e|--15------------15------|---------------------|
B|------------17----------|--17-----------------|
G|------------------------|---------------------|
D|------------------------|---------------------|
A|------------------------|---------------------|
E|------------------------|---------------------|

[Chorus]                                   
     CHIL  DREN  OF    THE       DAMNED                                           
     Q     Q     Q     S   T  T  E         W                    W                 
e|--19----19----19----20---L--L-19-----|---L----------------|---L----------------|
B|-------------------------------------|--------------------|--------------------|
G|-------------------------------------|--------------------|--------------------|
D|-------------------------------------|--------------------|--------------------|
A|-------------------------------------|--------------------|--------------------|
E|-------------------------------------|--------------------|--------------------|

                         CHIL  DREN  OF    THE       DAMNED                      
    W                    Q     Q     Q     S   T  T  E         W                 
e|-------------------|--14----15----14----15---L--L-12-----|---L----------------|
B|-------------------|-------------------------------------|--------------------|
G|-------------------|-------------------------------------|--------------------|
D|-------------------|-------------------------------------|--------------------|
A|-------------------|-------------------------------------|--------------------|
E|-------------------|-------------------------------------|--------------------|

                                              CHIL  DREN  OF    THE       DAMNED 
     W                   W                    Q     Q     Q     S   T  T  E      
e|---L----------------|-------------------|--19----19----19----20---L--L-19-----|
B|--------------------|-------------------|-------------------------------------|
G|--------------------|-------------------|-------------------------------------|
D|--------------------|-------------------|-------------------------------------|
A|--------------------|-------------------|-------------------------------------|
E|--------------------|-------------------|-------------------------------------|

     W                    W                   W                 
e|---L----------------|---L----------------|-------------------|
B|--------------------|--------------------|-------------------|
G|--------------------|--------------------|-------------------|
D|--------------------|--------------------|-------------------|
A|--------------------|--------------------|-------------------|
E|--------------------|--------------------|-------------------|

     CHIL  DREN  OF    THE DA                   AA  AA  
     Q     Q     Q     E   E      H.            E   E   
e|--14----15----14----15--12--|---L------------14--15--|
B|----------------------------|------------------------|
G|----------------------------|------------------------|
D|----------------------------|------------------------|
A|----------------------------|------------------------|
E|----------------------------|------------------------|

     AA    AA    AA    AA       AMNED                             HE?S  
     Q     Q     Q     Q        W                   H.            Q     
e|--12----14----15----17----|--19----------------|---------------------|
B|--------------------------|--------------------|---------------19----|
G|--------------------------|--------------------|---------------------|
D|--------------------------|--------------------|---------------------|
A|--------------------------|--------------------|---------------------|
E|--------------------------|--------------------|---------------------|

[Verse Riff 1]                                                                
     WAL          KING                  LIKE  A     DEAD           MAN           
     Q            H.              Q     Q     Q     Q        Q     H.            
e|-----------------------------|-------------15----19----|---L----17------------|
B|--19-----------17------------|-------17----------------|----------------------|
G|-----------------------------|-------------------------|----------------------|
D|-----------------------------|-------------------------|----------------------|
A|-----------------------------|-------------------------|----------------------|
E|-----------------------------|-------------------------|----------------------|

                     IF     HE    HAD    LIVED HE    WOULD       HAVE 
    H        Q.      E      Q     S   S  Q     S  S  S     T  T  E    
e|------------------17--|--19----17---L-19----17--L-19-----L--L-17---|
B|----------------------|--------------------------------------------|
G|----------------------|--------------------------------------------|
D|----------------------|--------------------------------------------|
A|----------------------|--------------------------------------------|
E|----------------------|--------------------------------------------|

     CRU   CI    FIED    US  ALL                                     NOW   HE?S 
     Q     S  S  Q.      E   E      W                   H        E   Q     E    
e|--19----17--L-19------17--19--|---L----------------|-------------------------|
B|------------------------------|--------------------|--------------20----19---|
G|------------------------------|--------------------|-------------------------|
D|------------------------------|--------------------|-------------------------|
A|------------------------------|--------------------|-------------------------|
E|------------------------------|--------------------|-------------------------|

     STAN  DING                  ON    HIS   LAST           STEP          
     Q     H.              Q     Q     Q     Q        Q     H.            
e|----------------------|-------------15----19----|---L----17------------|
B|--19----17------------|-------17----------------|----------------------|
G|----------------------|-------------------------|----------------------|
D|----------------------|-------------------------|----------------------|
A|----------------------|-------------------------|----------------------|
E|----------------------|-------------------------|----------------------|

                 HE       THOUGHT    O      BLI VI  ON      WELL IT    
    H        E   S  T  T  S       S  E      E   E   Q    S  E.   Q     
e|--------------17--L--L-19-------L-17--|--19--17--19------15---------|
B|--------------------------------------|-----------------------17----|
G|--------------------------------------|-----------------------------|
D|--------------------------------------|-----------------------------|
A|--------------------------------------|-----------------------------|
E|--------------------------------------|-----------------------------|

          BE    CKONS    US          ALL              
    Q     Q     Q     S  E.      E   H.           E   
e|-------------19-----L-17---|---L--19---------------|
B|-------22------------------|-----------------------|
G|---------------------------|-----------------------|
D|---------------------------|-----------------------|
A|---------------------------|-----------------------|
E|---------------------------|-----------------------|

[Chorus]                                   
     CHIL  DREN  OF    THE       DAMNED                                           
     Q     Q     Q     S   T  T  E         W                    W                 
e|--19----19----19----20---L--L-19-----|---L----------------|---L----------------|
B|-------------------------------------|--------------------|--------------------|
G|-------------------------------------|--------------------|--------------------|
D|-------------------------------------|--------------------|--------------------|
A|-------------------------------------|--------------------|--------------------|
E|-------------------------------------|--------------------|--------------------|

                         CHIL  DREN  OF    THE       DAMNED                      
    W                    Q     Q     Q     S   T  T  E         W                 
e|-------------------|--14----15----14----15---L--L-12-----|---L----------------|
B|-------------------|-------------------------------------|--------------------|
G|-------------------|-------------------------------------|--------------------|
D|-------------------|-------------------------------------|--------------------|
A|-------------------|-------------------------------------|--------------------|
E|-------------------|-------------------------------------|--------------------|

                                              CHIL  DREN  OF    THE       DAMNED 
     W                   W                    Q     Q     Q     S   T  T  E      
e|---L----------------|-------------------|--19----19----19----20---L--L-19-----|
B|--------------------|-------------------|-------------------------------------|
G|--------------------|-------------------|-------------------------------------|
D|--------------------|-------------------|-------------------------------------|
A|--------------------|-------------------|-------------------------------------|
E|--------------------|-------------------|-------------------------------------|

     W                    W                   W                 
e|---L----------------|---L----------------|-------------------|
B|--------------------|--------------------|-------------------|
G|--------------------|--------------------|-------------------|
D|--------------------|--------------------|-------------------|
A|--------------------|--------------------|-------------------|
E|--------------------|--------------------|-------------------|

     CHIL  DREN  OF    THE DA                   AA  AA  
     Q     Q     Q     E   E      H.            E   E   
e|--14----15----14----15--12--|---L------------14--15--|
B|----------------------------|------------------------|
G|----------------------------|------------------------|
D|----------------------------|------------------------|
A|----------------------------|------------------------|
E|----------------------------|------------------------|

     AA    AA    AA    AA       AMNED                             
     Q     Q     Q     Q        W                   H.            
e|--12----14----15----17----|--19----------------|---------------|
B|--------------------------|--------------------|---------------|
G|--------------------------|--------------------|---------------|
D|--------------------------|--------------------|---------------|
A|--------------------------|--------------------|---------------|
E|--------------------------|--------------------|---------------|

[Break]                                                                        
    W                   W                   W                   W                 
e|-------------------|-------------------|-------------------|-------------------|
B|-------------------|-------------------|-------------------|-------------------|
G|-------------------|-------------------|-------------------|-------------------|
D|-------------------|-------------------|-------------------|-------------------|
A|-------------------|-------------------|-------------------|-------------------|
E|-------------------|-------------------|-------------------|-------------------|

    W                   W                   W                 
e|-------------------|-------------------|-------------------|
B|-------------------|-------------------|-------------------|
G|-------------------|-------------------|-------------------|
D|-------------------|-------------------|-------------------|
A|-------------------|-------------------|-------------------|
E|-------------------|-------------------|-------------------|

[Verse Riff 2]      
            NOW    IT?S    BUR    NING    HIS    HANDS             
    Q.      S   S  S    S  S   S  S    S  E      W                 
e|---------20---L-19----L-19---L-19----L-20--|--19----------------|
B|-------------------------------------------|--------------------|
G|-------------------------------------------|--------------------|
D|-------------------------------------------|--------------------|
A|-------------------------------------------|--------------------|
E|-------------------------------------------|--------------------|

              HE?S    TUR    NING TO     LAUGH                                S   
    H         S    S  S   S  E    E      W                   H        Q.      E   
e|-----------15----L-15---L-15---17--|--17----------------|------------------19--|
B|-----------------------------------|--------------------|----------------------|
G|-----------------------------------|--------------------|----------------------|
D|-----------------------------------|--------------------|----------------------|
A|-----------------------------------|--------------------|----------------------|
E|-----------------------------------|--------------------|----------------------|

     MILES        AS    THE    FLAME        SEARS     HIS    FLESH             
     H        E   Q     E      H        E   E     E   E      W                 
e|--19-----------19----20--|--17-----------19-----L--20--|--19----------------|
B|-------------------------|-----------------------------|--------------------|
G|-------------------------|-----------------------------|--------------------|
D|-------------------------|-----------------------------|--------------------|
A|-------------------------|-----------------------------|--------------------|
E|-------------------------|-----------------------------|--------------------|

                 MEL    TING    HIS    FACE              
    H        E   S   S  S    S  E      W                 
e|--------------19---L-19----L-20--|--19----------------|
B|---------------------------------|--------------------|
G|---------------------------------|--------------------|
D|---------------------------------|--------------------|
A|---------------------------------|--------------------|
E|---------------------------------|--------------------|

              S   CREA    MING IN     PAIN                                  
    H         E   S    S  E    E      W                   W                 
e|-----------15--15----L-15---17--|--17----------------|-------------------|
B|--------------------------------|--------------------|-------------------|
G|--------------------------------|--------------------|-------------------|
D|--------------------------------|--------------------|-------------------|
A|--------------------------------|--------------------|-------------------|
E|--------------------------------|--------------------|-------------------|

     PEE          LING  THE    SKIN         FROM  HIS    EYES              
     H        E   Q     E      H        E   Q     E      W                 
e|--19-----------19----20--|--17-----------19----20--|--19----------------|
B|-------------------------|-------------------------|--------------------|
G|-------------------------|-------------------------|--------------------|
D|-------------------------|-------------------------|--------------------|
A|-------------------------|-------------------------|--------------------|
E|-------------------------|-------------------------|--------------------|

                 WATCH       HIM      DIE               
    H        E   S     T  T  Q        W                 
e|--------------19-----L--L-20----|--19----------------|
B|--------------------------------|--------------------|
G|--------------------------------|--------------------|
D|--------------------------------|--------------------|
A|--------------------------------|--------------------|
E|--------------------------------|--------------------|

              A     CCOR    DING    TO     PLAN              
    H         S  S  S    S  S    S  E      W                 
e|-----------15--L-15----L-15----L-17--|--17----------------|
B|-------------------------------------|--------------------|
G|-------------------------------------|--------------------|
D|-------------------------------------|--------------------|
A|-------------------------------------|--------------------|
E|-------------------------------------|--------------------|

                     HE?S    DUST         ON    THE 
    H        Q.      E       H        E   Q     E   
e|------------------19---|--19-----------19----20--|
B|-----------------------|-------------------------|
G|-----------------------|-------------------------|
D|-----------------------|-------------------------|
A|-----------------------|-------------------------|
E|-----------------------|-------------------------|

     GROUND       WHAT    DID WE     LE                EE  
     H        E   S    S  E   E      H.            E   E   
e|--17-----------19----L-19--20--|--19-------------L--20--|
B|-------------------------------|------------------------|
G|-------------------------------|------------------------|
D|-------------------------------|------------------------|
A|-------------------------------|------------------------|
E|-------------------------------|------------------------|

[Interlude]                             
     EE      EE  EE      EE     ARN                                     
     Q.      E   Q.      E      H         H           W                 
e|--19------20--19------20--|--19------------------|-------------------|
B|--------------------------|----------------------|-------------------|
G|--------------------------|----------------------|-------------------|
D|--------------------------|----------------------|-------------------|
A|--------------------------|----------------------|-------------------|
E|--------------------------|----------------------|-------------------|

[Chorus]                 
                                               OH...             UH  
    W                   H.              E      H.            E   E   
e|-------------------|---------------|-----|--12-------------L--14--|
B|-------------------|---------------|-----|---------------------7--|
G|-------------------|---------------|-----|---9-------------L------|
D|-------------------|---------------|-----|---------------------4--|
A|-------------------|---------------|-----|---7-------------L------|
E|-------------------|---------------|-----|------------------------|

         OH    OH    OH    OH     OH...             UH  
     E   Q     Q     Q     E      H.            E   E   
e|---L--15----14----12----10--|--12-------------L--14--|
B|---L---8-----7--------------|---------------------7--|
G|-------------------9-----7--|---9-------------L------|
D|---L---5-----4--------------|---------------------4--|
A|-------------------7-----5--|---7-------------L------|
E|----------------------------|------------------------|

         OH    OH    OH    OH     OH...             UH  
     E   Q     Q     Q     E      H.            E   E   
e|---L--15----14----12----10--|--12-------------L--14--|
B|---L---8-----7--------------|---------------------7--|
G|-------------------9-----7--|---9-------------L------|
D|---L---5-----4--------------|---------------------4--|
A|-------------------7-----5--|---7-------------L------|
E|----------------------------|------------------------|

         OH    OH    OH    OH     OH...             UH  
     E   Q     Q     Q     E      H.            E   E   
e|---L--15----14----12----14--|--10-------------L--14--|
B|---L---8-----7-----------7--|---------------------7--|
G|-------------------9--------|---7-------------L------|
D|---L---5-----4-----------4--|---------------------4--|
A|-------------------7--------|---5-------------L------|
E|----------------------------|------------------------|

         OH    OH    OH    OH     OH...             UH  
     E   Q     Q     Q     E      H.            E   E   
e|---L--15----14----12----14--|--12-------------L--14--|
B|---L---8-----7-----------7--|---------------------7--|
G|-------------------9--------|---9-------------L------|
D|---L---5-----4-----------4--|---------------------4--|
A|-------------------7--------|---7-------------L------|
E|----------------------------|------------------------|

         OH    OH    OH    OH     OH...             UH  
     E   Q     Q     Q     E      H.            E   E   
e|---L--15----14----12----10--|--12-------------L--14--|
B|---L---8-----7--------------|---------------------7--|
G|-------------------9-----7--|---9-------------L------|
D|---L---5-----4--------------|---------------------4--|
A|-------------------7-----5--|---7-------------L------|
E|----------------------------|------------------------|

         OH    OH    OH    OH     OH...             UH  
     E   Q     Q     Q     E      H.            E   E   
e|---L--15----14----12----10--|--12-------------L--14--|
B|---L---8-----7--------------|---------------------7--|
G|-------------------9-----7--|---9-------------L------|
D|---L---5-----4--------------|---------------------4--|
A|-------------------7-----5--|---7-------------L------|
E|----------------------------|------------------------|

         OH    OH    OH    OH     OH...             YOU?RE 
     E   Q     Q     Q     E      H.            E   E      
e|---L--15----14----12----14--|--10-------------L--17-----|
B|---L---8-----7-----------7--|---------------------------|
G|-------------------9--------|---7-------------L---------|
D|---L---5-----4-----------4--|---------------------------|
A|-------------------7--------|---5-------------L---------|
E|----------------------------|---------------------------|

[Verse Riff 3]               
          CHIL   DREN   OF     THE    DAMNED                YOUR 
     S S  E.  S  E.  S  E.  S  E      Q.          H         E    
e|---L---19-----17-----15-----14--|--15--------------------17---|
B|--------------------------------|-----------------------------|
G|--------------------------------|-----------------------------|
D|--------------------------------|-----------------------------|
A|--------------------------------|-----------------------------|
E|--------------------------------|-----------------------------|

     BACK?S     A     GAINST    THE     WALL             YOU 
     E.    E.   S  S  E.    E   E.      Q.     H         E   
e|--19---------17--L-15--------14---|--15---------------17--|
B|----------------------------------|-----------------------|
G|----------------------------------|-----------------------|
D|----------------------------------|-----------------------|
A|----------------------------------|-----------------------|
E|----------------------------------|-----------------------|

          TURN   IN     TO     THE    LIGHT            YOU?RE 
     S S  E.  S  E.  S  E.  S  E      Q.     H         E      
e|---L---19-----17-----15-----14--|--14---------------15-----|
B|--------------------------------|--------------------------|
G|--------------------------------|--------------------------|
D|--------------------------------|--------------------------|
A|--------------------------------|--------------------------|
E|--------------------------------|--------------------------|

          BUR    NING   IN     THE    NIGHT            YOU?RE 
     S S  E.  S  E.  S  E.  S  E      Q.     H         E      
e|---L---17-----15-----14-----15--|-------------------17-----|
B|--------------------------------|--15----------------------|
G|--------------------------------|--------------------------|
D|--------------------------------|--------------------------|
A|--------------------------------|--------------------------|
E|--------------------------------|--------------------------|

          CHIL   DREN   OF     THE    DAMNED           LIKE 
     S S  E.  S  E.  S  E.  S  E      Q.     H         E    
e|---L---19-----17-----19-----20--|--19---------------17---|
B|--------------------------------|------------------------|
G|--------------------------------|------------------------|
D|--------------------------------|------------------------|
A|--------------------------------|------------------------|
E|--------------------------------|------------------------|

          CAN    DLES   WATCH   THEM    BURN                
     S S  E.  S  E.  S  E.   S  E       Q.     H        E   
e|---L---19-----17-----19------20---|--15------------------|
B|----------------------------------|----------------------|
G|----------------------------------|----------------------|
D|----------------------------------|----------------------|
A|----------------------------------|----------------------|
E|----------------------------------|----------------------|

        BUR    NING   IN     THE    LIGHT            YOU?LL 
    E   E.  S  E.  S  E.  S  E      Q.     H         E      
e|-----19-----17-----15-----19--|--15---------------17-----|
B|------------------------------|--------------------------|
G|------------------------------|--------------------------|
D|------------------------------|--------------------------|
A|------------------------------|--------------------------|
E|------------------------------|--------------------------|

[Outro]               
          BURN   A      GAIN   TO     NIGHT               
     S S  E.  S  E.  S  E.  S  E      Q.     H        E   
e|---L---19-----17-----15-----17--|----------------------|
B|--------------------------------|--15------------------|
G|--------------------------------|----------------------|
D|--------------------------------|----------------------|
A|--------------------------------|----------------------|
E|--------------------------------|----------------------|

          CHIL   DREN   OF        THE    DAMNED                             
    Q     E.  S  E.  S  E.  S     E.  S  H.               W                 
e|-------19-----17-----19-----|--17-----24------------|---L----------------|
B|----------------------------|-----------------------|--------------------|
G|----------------------------|-----------------------|--------------------|
D|----------------------------|-----------------------|--------------------|
A|----------------------------|-----------------------|--------------------|
E|----------------------------|-----------------------|--------------------|

    W                   W                  
e|-------------------|-------------------|
B|-------------------|-------------------|
G|-------------------|-------------------|
D|-------------------|-------------------|
A|-------------------|-------------------|
E|-------------------|-------------------|



************************************

Duration Legend
---------------
W - whole
H - half
Q - quarter
E - 8th
S - 16th
T - 32nd
X - 64th
. - note dotted
|-n-|  - n-tuplets


Tablature Legend
----------------
L - tied note
x - dead note
g - grace note
(n) - ghost note
> - accentuded note
NH - natural harmonic
AH - artificial harmonic
TH - tapped harmonic
SH - semi harmonic
PH - pitch harmonic
h - hammer on
p - pull off
b - bend
br - bendRelease
pb - preBend
pbr - preBendRelease
brb - bendReleaseBend
\n/ - tremolo bar dip
\n - tremolo bar dive
-/n - tremolo bar Release up
/n\ - tremolo bar inverted dip
/n - tremolo bar return
-\n - tremolo bar Release down
S - shift slide
s - legato slide
/ -  slide into from below or out of upwards
\ -  slide into from above or out of downwards
~ - vibrato
W - wide vibrato
tr - trill
TP - tremolo picking
T - tapping
S - slap
P - pop
< - fade in
^ - brush up
v - brush down

************************************

            
            
Suggest correction
Creating personal tab
Creating personal tab
You can edit any tab online and save it as your Personal.

You can edit, replace or remove any tab part or add personal notes – all changes will be seen only by you.

Personal tabs can be accessed anytime from any device, even offline.
Learn more »
comments
print report bad tab
2 comments total.
0 reply
cnmmopars 10 Oct 04, 2017 03:52 PM

im not very good but will try. no special reason, just love this song! thanks for sharing! 😁

0 reply
AidanKruk 63 Oct 16, 2017 06:08 AM

didn't like this contribution

guest
You may want to rate the tab now too:
select rating
Wanna post a correction for this tab? Suggest correction