Oops, an error
Loading. Please wait.

Die With Your Boots On bass

version 2
version 2

Whole song

Interactive

2,595 views 6 this week
1 commentread comment
1 2 3 4 5
x 5
add to favorites
×
Save as Personal and add changes to this tab that will be seen only by you. Learn more ›
×
You can save this tab as Personal to edit and correct it or add notes. All changes will be seen only by you. Learn more »
launch autoscroll
font size
0
reset
guitar tuner
backing track
0:00
0:00
edit
Autoscroll
slow
fast
+/-
esc
set tempo
stop
Author
Difficulty
-----------------------------------------------------------------------------
                    DIE WITH YOUR BOOTS ON - Iron Maiden
-----------------------------------------------------------------------------

Tabbed by: Matt Broback
E-mail: 37hambone@gmail.com

Tuning: E A D G


INTRO
|--------|--------|--------|--------|--------|--------|--------|--------|
|--------|--------|--------|--------|--------|--------|--------|--------|
|5-77----|--------|2-33----|--------|3-55----|--------|5-77----|--------|
|--------|--------|--------|--------|--------|--------|--------|--------|

|----------------|----------------|----------------|----------------|
|----------------|----------------|----------------|----------------|
|5---777-777-777-|777-777-777-0---|2---333-333-333-|333-333-333-3---|
|----------------|----------------|----------------|----------------|

|----------------|----------------|----------------|----------------|
|----------------|----------------|----------------|--5-------------|
|3---555-555-555-|555-555-555-5---|5---777-777-7-7-|7---7-5---------|
|----------------|----------------|----------------|--------7-5-3-0-|


VERSE
|----------------|----------------|----------------|----------------|
|----------------|5---555-5-5-3---|----------------|----555-5-7-5---|
|7---777-7-7-5---|--------------5-|3---333-3-3-2-0-|--------------5-|
|--------------7-|----------------|----------------|3---------------|

|----------------|----------------|----------------|----------------|
|----------------|5---555-5-5-3---|----------------|----5---5-7-5---|
|7---777-7-7-5---|--------------5-|3---333-3-3-2-0-|--------------5-|
|--------------7-|----------------|----------------|3---------------|

|----------------|----------------|----------------|----------------|
|----------------|5---555-5-5-3---|----------------|----5-5-5-7-5---|
|7---777-7-7-5---|--------------5-|3---333-3-3-2-0-|--------------5-|
|--------------7-|----------------|----------------|3---------------|

|----------------|----------------|----------------|----------------|
|----------------|5---555-5-5-3---|----------------|----------------|
|7---777-7-7-5---|--------------5-|3---333-3-3-2-0-|----------------|
|--------------7-|----------------|----------------|3---333-333-1---|


PRECHORUS 1
|-----------------|----------------|----------------|----------------|
|:----------------|----------------|----------------|----------------|
|:1---111-1-1-1-0-|----------------|3---333-3-3-2-0-|----------------|
|-----------------|1---111-1-1-1-1-|----------------|3---333-333-1---|

|----------------|----------------|----------------|-----------------|
|----------------|----------------|----------------|----------------:|
|1---111-1-1-1-0-|----------------|----------------|----------------:|
|----------------|1---111-1-1-1---|1---333-1-3-3-3-|1---333-3-3-1----|

|----------------|----------------|----------------|----------------|
|----------------|----------------|----------------|----------------|
|1---111-1-1-1-1-|111-111-1-1-1-1-|1---111-1-1-1-1-|111-111-1-1-0-0-|
|----------------|----------------|----------------|----------------|

|------5----5----|5---------------|----7-7-7-7-7---|/9-7-------------|
|----------------|----------------|----------------|-----9-7-6-------|
|3---3----3----3-|----3-3-3-3-0-5-|--5-----------5-|-----------9-7-5-|
|----------------|----------------|----------------|-----------------|


CHORUS 1
|----------------|----------------|----------------|----------------|
|----------------|----------------|----------------|----------5-4---|
|7-7-7-777-7-7-7-|--777-777-7-7-5-|--777-777-7-7-7-|7-5-------------|
|----------------|----------------|----------------|----7-5-3-----0-|

|----------------|----------------|----------------|----------------|
|----------------|----------------|----------------|5---------------|
|----7-777-777-77|7-777-777-7-7-5-|--777-777-7-7-7-|--7-5---0-------|
|--0-------------|----------------|----------------|------7---3-2-0-|

|----------------|----------------|----------------|-----------------|
|----------------|----------------|----------------|/7-5-------------|
|----7-777-777-77|7-777-777-7-7-5-|--777-777-7-7-7-|-----7-5-3-------|
|--0-------------|----------------|----------------|-----------5-3-0-|

|----------------|----------------|----------------|--------------|
|----------------|----------------|----------------|--------------|
|----7-777-777-77|7-777-777-7-7-5-|--777-777-777-7-|7-5-----------|
|--0-------------|----------------|----------------|----7-5-3-0-2-|


VERSE
|----------------|----------------|----------------|----------------|
|----------------|5---555-5-5-3---|----------------|----555-5-7-5---|
|7---777-7-7-5---|--------------5-|3---333-3-3-2-0-|--------------5-|
|--------------7-|----------------|----------------|3---------------|

|----------------|----------------|----------------|----------------|
|----------------|5---555-5-5-3---|----------------|----5---5-7-5---|
|7---777-7-7-5---|--------------5-|3---333-3-3-2-0-|--------------5-|
|--------------7-|----------------|----------------|3---------------|

|----------------|----------------|----------------|----------------|
|----------------|5---555-5-5-3---|----------------|----5-5-5-7-5---|
|7---777-7-7-5---|--------------5-|3---333-3-3-2-0-|--------------5-|
|--------------7-|----------------|----------------|3---------------|

|----------------|----------------|----------------|----------------|
|----------------|5---555-5-5-3---|----------------|----------------|
|7---777-7-7-5---|--------------5-|3---333-3-3-2-0-|----------------|
|--------------7-|----------------|----------------|3---333-333-1---|


PRECHORUS 2
|-----------------|----------------|----------------|----------------|
|:----------------|----------------|----------------|----------------|
|:1---111-1-1-1-0-|----------------|3---333-3-3-2-0-|----------------|
|-----------------|1---111-1-1-1-1-|----------------|3---333-333-1---|

|----------------|----------------|----------------|-----------------|
|----------------|----------------|----------------|----------------:|
|1---111-1-1-1-0-|----------------|----------------|----------------:|
|----------------|1---111-1-1-1---|1---333-1-3-3-3-|1---333-3-3-1----|

|----------------|----------------|----------------|----------------|
|----------------|----------------|----------------|----------------|
|1---111-1-1-1-1-|111-111-1-1-1-1-|1---111-1-1-1-1-|111-111-1-1-0-0-|
|----------------|----------------|----------------|----------------|

|------5----5----|5-----5---------|----7-7-7-7-7-7-|/9-7-------------|
|----------------|----------------|----------------|-----9-7---------|
|3---3----3----3-|----3---3-3-0-5-|--5-------------|---------9-7-5---|
|----------------|----------------|----------------|---------------7-|


CHORUS 2
|----------------|----------------|----------------|----------------|
|----------------|----------------|----------------|----------5-4---|
|7-7-7-777-7-7-7-|--777-777-7-7-5-|--777-777-7-7-7-|7-5-------------|
|----------------|----------------|----------------|----7-5-3-----0-|

|----------------|----------------|----------------|----------------|
|----------------|----------------|----------------|5---------------|
|----7-777-777-77|7-777-777-777-5-|--777-7-7-7-7-7-|--7-5---0-------|
|--0-------------|----------------|----------------|------7---3-2-0-|

|----------------|----------------|----------------|-----------------|
|----------------|----------------|----------------|/7-5-------------|
|----7-777-777-77|7-777-777-777-5-|--777-7-7-7-7-7-|-----7-5-3-------|
|--0-------------|----------------|----------------|-----------5-3-0-|

|----------------|----------------|----------------|--------------|
|----------------|----------------|----------------|--------------|
|----7-777-777-77|7-777-777-777-5-|--777-7-7-7-7-7-|7-5-----------|
|--0-------------|----------------|----------------|----7-5-3-0-2-|


SOLO                                                x3
|----9-9--|---11-11--|-----12--12----|-----14--14-----|
|:7-7-7-77|9-9--9--99|10-10--10--1010|12-12--12--1212:|
|:--------|----------|---------------|---------------:|
|---------|----------|---------------|----------------|

|---9-9--|---11-11--|-----12--12----|-----14--14--|
|7-7-7-77|9-9--9--99|10-10--10--1010|12-12--12--00|
|--------|----------|---------------|-------------|
|--------|----------|---------------|-------------|


INTERLUDE
|----------------|-----------------|----------------|-----------------|
|----------------|-----------------|----------------|-----------------|
|0---000-0-0-0-0-|0-0-0-0-0-/5-3-0-|----------------|----------/5-3-2-|
|----------------|-----------------|1---111-1-1-1-1-|1-1-1-1-0--------|

|----------------|-----------------|----------------|----------------|
|----------------|-----------------|----------------|----------------|
|----------------|----------/5-3-2-|0---000-0-0-0-0-|0-3-0-3-0-5-3-0-|
|3---333-3-3-3-3-|3-3-3-3-0--------|----------------|----------------|

|----------------|-----------------|----------------|-----------------|
|----------------|-----------------|----------------|-----------------|
|0---000-0-0-0-0-|0-0-0-0-0-/5-3-0-|----------------|----------/5-3-2-|
|----------------|-----------------|1---111-1-1-1-1-|1-1-1-1-0--------|

|----------------|-----------------|----------------|----------------|
|----------------|-----------------|----------------|----------------|
|----------------|----------/5-3-2-|0---000-0-0-0-0-|0-3-0-3-0-------|
|3---333-3-3-3-3-|3-3-3-3-0--------|----------------|----------3-0-3-|

|----------------|-----------------|----------------|-----------------|
|----------------|-----------------|----------------|-----------------|
|0---000-0-0-0-0-|0-0-0-0-0-/5-3-0-|----------------|----------/5-3-2-|
|----------------|-----------------|1---111-1-1-1-1-|1-1-1-1-0--------|

|----------------|-----------------|----------------|----------------|
|----------------|-----------------|----------------|----------------|
|----------------|----------/5-3-2-|0---000-0-0-0-0-|0-3-0-3-3-5-3-0-|
|3---333-3-3-3-3-|3-3-3-3-0--------|----------------|----------------|

|----------------|-----------------|----------------|-----------------|
|----------------|-----------------|----------------|-----------------|
|0---000-0-0-0-0-|0-0-0-0-0-/5-3-0-|----------------|----------/5-3-2-|
|----------------|-----------------|1---111-1-1-1-1-|1-1-1-1-0--------|

|----------------|-----------------|----------------|----------------|
|----------------|-----------------|----------------|----------------|
|----------------|----------/5-3-2-|0---0-0-0---0-0-|0---0-3-0-3-0---|
|3---333-3-3-3-3-|3-3-3-3-0--------|----------------|--------------3-|

|-----------------|-----------------|----------------|-----------------|
|:----------------|-----------------|----------------|-----------------|
|:0---000-0-0-0-0-|0-0-0-0-0-/5-3-0-|----------------|----------/5-3-2-|
|-----------------|-----------------|1---111-1-1-1-1-|1-1-1-1-0--------|

|----------------|----------------|----9-------11---|-----12------------|
|0---000-0-0-0-0-|000-0-0-0-0-0---|7-------7/9----9/|10-------10/12\\\\:|
|----------------|--------------0-|-----------------|------------------:|
|----------------|----------------|-----------------|-------------------|


PRECHORUS 3
|-----------------|----------------|----------------|----------------|
|:----------------|----------------|----------------|----------------|
|:1---111-1-1-1-0-|----------------|3---333-3-3-2-0-|----------------|
|-----------------|1---111-1-1-1-1-|----------------|3---333-333-1---|

|----------------|----------------|----------------|-----------------|
|----------------|----------------|----------------|----------------:|
|1---111-1-1-1-0-|----------------|----------------|----------------:|
|----------------|1---111-1-1-1---|1---333-1-3-3-3-|1---333-3-3-1----|

|----------------|----------------|----------------|----------------|
|----------------|----------------|----------------|----------------|
|1---111-1-1-1-1-|111-111-1-1-1-1-|1---111-1-1-1-1-|111-111-1-1-0-0-|
|----------------|----------------|----------------|----------------|

|------5----5----|5-----5---------|----7-7-7-7-7-7-|/9-7-------------|
|----------------|----------------|----------------|-----9-7-6-------|
|3---3----3----3-|----3---3-3-0-5-|--5-------------|-----------9-7-5-|
|----------------|----------------|----------------|-----------------|


OUTRO
|----------------|----------------|----------------|----------------|
|----------------|----------------|----------------|----------5-4---|
|7-7-7-777-7-7-7-|--777-777-7-7-5-|--777-777-7-7-7-|7-5-------------|
|----------------|----------------|----------------|----7-5-3-----0-|

|----------------|----------------|----------------|----------------|
|----------------|----------------|----------------|5---------------|
|----7-777-777-77|7-777-777-777-5-|--777-7-7-7-7-7-|--7-5---0-------|
|--0-------------|----------------|----------------|------7---3-2-0-|

|----------------|----------------|----------------|-----------------|
|----------------|----------------|----------------|/7-5---5---------|
|----7-777-777-77|7-777-777-777-5-|--777-7-7-7-7-7-|-----7---7-5-----|
|--0-------------|----------------|----------------|-------------3-0-|

|----------------|----------------|-----------------|----------------|
|----------------|----------------|-----------------|----------------|
|----7-777-777-77|7-777-777-777-5-|--777-777-7-7-/7-|--5-----------7-|
|--0-------------|----------------|-----------------|----7-5-3-2-0---|

            
            
Suggest correction
Creating personal tab
Creating personal tab
You can edit any tab online and save it as your Personal.

You can edit, replace or remove any tab part or add personal notes – all changes will be seen only by you.

Personal tabs can be accessed anytime from any device, even offline.
Learn more »
comments
print report bad tab
1 comment total.
+1 reply
dudurata 10 May 30, 2013 04:27 AM

Take a closer listen at those parts you tabbed as triplets. What i hear there is "doublets" (lol) , similar to the pre-chorus etc, but with a different accent (hard to tab that, easier with classic notation) If you play the song in slow motion you will see he actually sometimes use few triplets, but most of the time it is not. Listening to the live version is easier to notice. Apart from that, the tab looks good.

guest
You may want to rate the tab now too:
select rating
Wanna post a correction for this tab? Suggest correction