Oops, an error
Loading. Please wait.

Different World bass

version 2
version 2

Whole song

618 views 1 this week
no commentswrite comment
1 2 3 4 5
3 more votes to show rating
add to favorites
×
Save as Personal and add changes to this tab that will be seen only by you. Learn more ›
×
You can save this tab as Personal to edit and correct it or add notes. All changes will be seen only by you. Learn more »
launch autoscroll
font size
0
reset
guitar tuner
backing track
0:00
0:00
edit
Autoscroll
slow
fast
+/-
esc
set tempo
stop
-------------------------------------------------------------------------------
                                           Different World - Iron Maiden
-------------------------------------------------------------------------------
Tabbed by: Killjoy Bassist
E-mail: killjoybassist@gmail.com

Tuning: Standard (EADG)

Hi guys, KBassist here, this is pretty much the same as endemicbass666's tab, its 
just got some of my own modifications to it, just keep in mind most of it belongs to him.

RIFF 1 :
                                                                             
G------------------------------------|-----------------7-5-4---------|
D------9-10-7-9------0-4-5-7-5-4-0---|-----9-10-7-9----------7-5-4-0-|
A--7-7-------------------------------|-7-7---------------------------| X 2
E------------------------------------|-------------------------------|



VERSE :

G--9----------------9----------------5---------------7-------------------|
D--9----------------9----------------5---------------7-------------------|
A--7--7-7-7-7-7-----7--7-7-7-7-7-----3--3-3-3-3-3----5----------0--------| 
E----------------------------------------------------------0-2-3--3-2-0--|


G--9----------------9----------------5-----------------------------------|
D--9----------------9----------------5---------------5-------------------|
A--7--7-7-7-7-7-----7--7-7-7-7-7-----3--3-3-3-3-3----5----------0--------| 
E----------------------------------------------------3-----0-2-3--3-2-0--|


G--9----------------9----------------5---------------7-------------------|
D--9----------------9----------------5---------------7-------------------|
A--7--7-7-7-7-7-----7--7-7-7-7-7-----3--3-3-3-3-3----5----------0--------| 
E----------------------------------------------------------0-2-3--3-2-0--|


G--9-----------------9------------------------------------7----------------|
D--9-----------------9-----------------5------------------7----------------|
A--7-7-7-7-7-7-7-7---7-7-7-7-7-7-7-7---5------------------5-5-5-5-5-5-5-5--| 
E--------------------------------------3-3-3-3-3-3-3-3---------------------|


REPEAT RIFF 1 (X 2)

REPEAT VERSE


CHORUS :

G-------------------5----------------2----------------5----------------|
D--5----------------5----------------2----------------5----------------|
A--5----------------3-3-3-3-3-3-3-3--0-0-0-0-0-0-0-0--3-3-3-3-3-3-3-3--|
E--3-3-3-3-3-3-3-3-----------------------------------------------------|

G-------------------5----------------9----------------7----------------|
D--5----------------5----------------9----------------7----------------|
A--5----------------3-3-3-3-3-3-3-3--7-7-7-7-7-7-7-7--5-5-5-5-5-5-5-5 -|
E--3-3-3-3-3-3-3-3-----------------------------------------------------|


G--9----------------5---------------------------------7----------------|
D--9----------------5----------------5----------------7----------------|
A--7-7-7-7-7-7-7-7--3-3-3-3-3-3-3-3--5----------------5-5-5-5-5-5-5-5--|
E------------------------------------3-3-3-3-3-3-3-3-------------------|


G--9----------------5---------------------------------7----------------|
D--9----------------5----------------5----------------7----------------|
A--7-7-7-7-7-7-7-7--3-3-3-3-3-3-3-3--5----------------5-5-5-5-5-5-5-5--|
E------------------------------------3-3-3-3-3-3-3-3-------------------|


BRIDGE :



G--9---------------------------------5------------------7--------------|
D--9----------------5----------------5------------------7--------------|
A--7-7-7-7-7-7-7-7--5----------------3-3-3-3-3-3-3-3--5-5-5-5-5-5-5-5--| x 3
E-------------------3-3-3-3-3-3-3-3------------------------------------|



G--2----------------5----------------7-----------------------------------|
D--2----------------5----------------7-----------------------------------|
A--0-0-0-0-0-0-0-0--3-3-3-3-3-3-3-3--5-5-5-5-5-5-5-5-5-5-5-5-5-5---------|
E------------------------------------------------------------------------|



REPEAT CHORUS

RIFF 1 (X 1)
then:

G------------------------------------|------------------7-5-4-5-4-------------------|
D------9-10-7-9-------0-4-5-7-5-4-0--|------9-10-7-9--------------7-5-9-7-5-4-7-5-4-|
A--7-7-------------------------------|-7-7------------------------------------------|  
E------------------------------------|----------------------------------------------|


INTERLUDE :


G--9----------------5---------------------------------7----------------|
D--9----------------5----------------5----------------7----------------|
A--7-7-7-7-7-7-7-7--3-3-3-3-3-3-3-3--5----------------5-5-5-5-5-5-5-5--|
E------------------------------------3-3-3-3-3-3-3-3-------------------|



G--9----------------5----------------7----------------7----------------|
D--9----------------5----------------5-5-5-5-5-5-5----7----------------|
A--7-7-7-7-7-7-7-7--3-3-3-3-3-3-3-3-------------------5-5-5-5-5-5-5-5--|
E---------------------------------------------------------------------|



G--9----------------5---------------------------------7----------------|
D--9----------------5----------------5----------------7----------------|
A--7-7-7-7-7-7-7-7--3-3-3-3-3-3-3-3--5----------------5-5-5-5-5-5-5-5--|
E------------------------------------3-3-3-3-3-3-3-3-------------------|



G--9----------------5----------------7-----------------------------------|
D--9----------------5----------------7-----------------------------------|
A--7-7-7-7-7-7-7-7--3-3-3-3-3-3-3-3--5-5-5-5-5-5-5-5-5-5-5-5-5-5---------|
E------------------------------------------------------------------------|


RIFF UNDER GUITAR SOLO :



G--9----------------5---------------------------------7----------------|
D--9----------------5----------------5----------------7----------------|
A--7-7-7-7-7-7-7-7--3-3-3-3-3-3-3-3--5----------------5-5-5-5-5-5-5-5--| x 3
E------------------------------------3-3-3-3-3-3-3-3-------------------|



G--5---------------------------------7-----------------------------------|
D--5----------------4----------------7-----------------------------------|
A--3-3-3-3-3-3-3-3--2-2-2-2-2-2-2-2--5-5-5-5-5-5-5-5-5-5-5-5-5-5---------|
E------------------------------------------------------------------------| 


REPEAT CHORUS 

REPEAT BRIDGE (X2)

REPEAT RIFF 1 (X 1)
then:

G------------------------------------|------------------|
D------9-10-7-9-------0-4-5-7-5-4-0--|-----9-10-7-9/----| <- On this slide, keep 
A--7-7-------------------------------|-7-7--------------| speed but release it at about the
E------------------------------------|------------------|  5th or 6th fret

            
            
Suggest correction
Creating personal tab
Creating personal tab
You can edit any tab online and save it as your Personal.

You can edit, replace or remove any tab part or add personal notes – all changes will be seen only by you.

Personal tabs can be accessed anytime from any device, even offline.
Learn more »
Give kudos to tab author, rate the tab!
1 2 3 4 5
comments
print report bad tab
guest
You may want to rate the tab now too:
select rating
Wanna post a correction for this tab? Suggest correction