Oops, an error
Loading. Please wait.

Dream Of Mirrors tab

version 3
version 3
5,353 views 12 this week
2 commentsread comments
1 2 3 4 5
x 7
add to favorites
×
Save as Personal and add changes to this tab that will be seen only by you. Learn more ›
×
You can save this tab as Personal to edit and correct it or add notes. All changes will be seen only by you. Learn more »
launch autoscroll
font size
0
reset
how to read this tab
guitar tuner
edit
Autoscroll
slow
fast
+/-
esc
set tempo
stop
Author
#----------------------------------PLEASE NOTE--------------------------------#
#This file is the author's own work and represents their interpretation of the#
#song. You may only use this file for private study, scholarship, or research.#
#-----------------------------------------------------------------------------#

Title: Dream of Mirrors
Artist: Iron Maiden
Tabbed by: Mezhen

Legend
x   =  mute
*   =  palm mute
h   =  hammer-on
p   =  pull-off
~   =  vibrato
t   =  finger tap
/   =  slide up
\   =  slide down
tr  =  trill
$$$$$$$
                                (Intro)
e|-------------------------------------------------------------------------|
B|-------------------------------------------------------------------------|
G|------4h5p4------------4h5p4---7--------4h5p4----------------------------|
D|-7-7--------5---7-7----------5-----7-7-------5-------------------10-9----|2x
A|-7-7---------5--7-7----------------7-7---------5-------------8-7---------|
E|-5-5------------5-5----------------5-5--------------8-7-8-7--------------|


e|----------------------------------------------------------------------------------------------|
B|----------------------------------------------------------------------------------------------|
G|----------------------------------------------------------------------------------------------|
D|-------9-9h10p9-7-9---------9-9h10p9-7-9-10-12----------7-7h8p7-5-7---------9-9h10p9-7-9-10-12|
A|-7-7-7----------------7-7-7----------------------5-5-5---------------7-7-7--------------------|
E|----------------------------------------------------------------------------------------------|

                           (Verse)
e|-----------------------------------------------------------------|
B|-----------------------------------------------------------------|
G|-------9h10p9------------7h9p7-----------5h7p5-----------4h5p4---|8X
D|--------------10---------------9---------------7---------------5-|
A|-0-0-0-------------0-0-0-----------0-0-0-----------0-0-0---------|
E|-----------------------------------------------------------------|
   * * *             * * *           * * *           * * *

                                      (Riff 1)
e|------------------------------------|   |-----------------------------------|
B|------------------------------------|   |-----------------------------------|
G|-----------------------7---7---7----|   |-----------------------------------|
D|-----3---3---3-------7---7---7---7--|3x |-----3---3---3---------5---5---5---|(4th time)
A|---3---3---3---3---5----------------|   |---3---3---3---3-----5---5---5---5-|
E|-1----------------------------------|   |-1-----------------3---------------|

                                (Riff 2)
e|-----------------------------|   |------------------------------|
b|-----------------------------|   |------------------------------|
G|-----2-----5-4-----5---------|   |-----2-----5-4----------------|
D|---2---2---------5-------5---|3X |---2---2-----------3------5---|
A|-0-------------3-------5---5-|   |-0---------------3------5---5-|
E|---------------------3-------|   |---------------1------3-------|

*Repeat Verse*

*Repeat Riff 1 alongside riff below*

Guitar 2 (Distortion)

(Note: you can play each power chord once, I just play this because I find it 
makes it more interesting)

                                            (Riff 3)
e|------------------------------------------|    |--------------------------------------|
b|------------------------------------------|    |--------------------------------------|
G|------------------------------------------|    |--------------------------------------|
D|----------------------7-7-7-x-x-7-7-7-x-x-|3x  |--------------------------------------|
A|-3-3-3-x-x-3-3-3-x-x--5-5-5-x-x-5-5-5-x-x-|    |-3-3-3-x-x-3-3-3-x-x--5-5-5-x-x-5-5-5-|
E|-1-1-1-x-x-1-1-1-x-x----------------------|    |-1-1-1-x-x-1-1-1-x-x--3-3-3-x-x-3-3-3-|
                                                               on the fourth
Chorus:

     A5  F5  G5   
  e|---|---|---|
  b|---|---|---|
  G|-2-|---|---|
  D|-2-|-3-|-5-|
  A|-0-|-3-|-5-|
  E|---|-1-|-3-|


A5 F5 G5--------|
                |
A5 F5 G5        |
               X2
A5 F5 G5        | 
                |
F5 G5-----------| 


*Repeat Riff 2*

*Repeat Verse*

*Repeat Riff 1 and 3 together*

*Repeat Chorus*

                        Riff 4
   Guitar 1
e |----------------------------------------------------------------------|
B |----------------------------------------------------------------------|
G |--4h5p4-4-4--------4h5p4-4-4---------2h3p2-2-2--------2h3p2-2-2-------|2X
D |------------7---7------------7---7-------------5---5------------5---5-|
A |--------------7----------------7-----------------5----------------5---|
E |----------------------------------------------------------------------|

   Guitar 2

e |---------------------------------------------------------------------------------------------|
B |-12h13p12-12-12----------12h13p12-12-12-----------10h11p10-10-10-8---8--10h11p10-10-10-8---8-|
G |----------------14---14-----------------14--14---------------------7---------------------7---|
D |------------------14----------------------14-------------------------------------------------|2x
A |---------------------------------------------------------------------------------------------|
E |---------------------------------------------------------------------------------------------|

MAIDEN GALLOP!
     A5
     Lost in a dream of mirrors
     G5
     Lost in paradox
     A5
     Lost and time is spinning
     F5           G5
     Lost a nightmare I retrace


*Repeat Riff 4

*Repeat Gallop*

*Repeat Riff 4

*Repeat Chorus Faster*

           Interlude:

        Guitar 1  (3x)        on the fourth             
e |-----------------------|----------------|------------------------------------|-------------------|
B |-----------------------|----------------|------------------------------------|-------------------|
G |-4h5p4---999-777-555-4-|-4h5p4--------4-|-12h13p12----171717-151515-131313-12|-12h13p12-----12-13|
D |-------7---------------|--------7-7p5---|----------14------------------------|----------14-------|
A |-----------------------|----------------|------------------------------------|-------------------|
E |-----------------------|----------------|------------------------------------|-------------------|


Solo Rhythm Progression: A5 F5 C5 F5 G5

 A5  F5  C5  G5
e|---|---|---|---|
b|---|---|---|---|
G|-2-|---|-5-|---|
D|-2-|-3-|-5-|-5-|
A|-0-|-3-|-3-|-5-|
E|---|-1-|---|-3-|


*Repeat *Interlude
*Repeat Chorus*
*Repeat Riff 2*

                    (Outro)
e |--------------------------------------------|
B |--------------------------------------------|
G |------9h10h9--------7------9h10h9---------7-|
D |------------10-------------------10---------|
A |-0-0-----------0-0----0-0-------------0-0---|
E |--------------------------------------------|

            
            
Suggest correction
Creating personal tab
Creating personal tab
You can edit any tab online and save it as your Personal.

You can edit, replace or remove any tab part or add personal notes – all changes will be seen only by you.

Personal tabs can be accessed anytime from any device, even offline.
Learn more »
comments
print report bad tab
2 comments total.
0 reply
Guns N' Chains 273 Jun 14, 2013 01:48 PM

Great song and great tab. Just wish there was a solo included. Nonetheless, very nice.

0 reply
MantisProwler 87 Apr 21, 2015 05:41 AM

Great song, Brilliant tab, really easy to understand. The only thing I can spot is that on the second bit of the intro, I think this should be played on the D & G strings instead of the A & D strings (as it's still the same key as the verse).

guest
You may want to rate the tab now too:
select rating
Wanna post a correction for this tab? Suggest correction