Oops, an error
Loading. Please wait.
We have an official Fear Of The Dark tab made by UG professional guitarists. Check out the tab »
×
418 views 30 this week
no commentswrite comment
1 2 3 4 5
1 last vote to show rating
add to favorites
×
Save as Personal and add changes to this tab that will be seen only by you. Learn more ›
×
You can save this tab as Personal to edit and correct it or add notes. All changes will be seen only by you. Learn more »
launch autoscroll
font size
0
reset
transpose
0
reset
display chords
guitar tuner
backing track
0:00
0:00
edit
Autoscroll
slow
fast
+/-
esc
set tempo
stop
Author
Difficulty
About this tab version
There is none like it for uke. Was this info helpful? Yes No
Strumming
There is no strumming pattern for this song yet. and get +5 IQ
  I worked very hard and very long so it may be 
messed up in some parts but anyways here.

P.S.
I didn't include solo 

[Preverse]
A|--------|-------------------7-----------------7---|
E|--------|-------5---------------1-----3---1-------|
C|--------|---------2--2----------------------------|
G|--------|-----------(-)-------------------------5-|
                                         
A|-------------------------------------|
E|---------3---------------------1-----|
C|---------------------------------2---|
G|-(5)-------5-------3---5---5---------|
                                             
A|-----------------7-------------------7---|
E|---------5---------1--1------3---1-------|
C|--2----------2---------------------------|
G|-(-)-----------------------------------5-|
                                                                               
A|-----------------------------------|---------------7-------------------7---|
E|-----------------------------------|-------5---------1--1------3---1-------|
C|-----------------------------------|-----------2---------------------------|
G|-(5)-------------------------------|-------------------------------------5-|
                                                                               
A|-------------------------------|-----------------7----------------7---|
E|---3-----3------------1--------|----5---------1--1----3-1--1----------|
C|-----------------------------2-|--2----------2------------------------|
G|-5--------5-----3-(3)5-5-------|-(-)--------------------------------5-|
                                          
A|--------------------------------------|
E|--------------------------------------|
C|--------------------------------------|
G|-(5)----------------------------------|
                                                                            
[Verse]
A||o-----------------1---1---1---1---|-----------------1---1------------o||
E||----5---5---5---5---1---1---1---1-|---3---3---3---3---1---1---3---3---||
C||--2---2---2---2-------------------|-0---0---0---0-----------0---0-----||
G||----------------------------------|-----------------------------------||
                                                                       
A|---------------------------------|-----------------1---1---1---1---|
E|---3---3---3---3-1---1---3---3---|---5---5---5---5---1---1---1---1-|
C|-0---0---0---0-------------2---2-|-2---2---2---2-------------------|
G|-------------------5---5---------|---------------------------------|
                                     
A|---------------------------------|
E|---3---3---3---3---3---3---3---3-|
C|-0---0---0---0---0---0---0---0---|
G|---------------------------------|


[Chorus]                                      
A|o-1---1---1---1-------------------|
E|----1---1---1---1---3---3---3---3-|
C|------------------0---0---0---0---|
G|----------------------------------|
                                                                       
A|---------------------------------|-1---1---1---1-------------------|
E|---5---5---5---5---3---3---3---3-|---1---1---1---1-1---1---3---3---|
C|-2---2---2---2---0---0---0---0---|---------------------------2---2-|
G|---------------------------------|-------------------5---5---------|
                                                                                  
A|---------------------------------o||-------------------------------|
E|---5---5---5---5---5---5---5---5--||---5---5---5---5---5---5-------|
C|-2---2---2---2---2---2---2---2----||-2---2---2---2---2---2---2---2-|
G|----------------------------------||-------------------------------|

A||o-(-)---------------|-----------------|-(-)---------------|------------------|
E||--------5-5-3-3-5-5-|-----5-5-3-3-5---|-------5-5-3-3-5-5-|-----5-5-3-3-5----|
C||---2--2-------------|-2-2-----------2-|--2--2-------------|-2-2-----------2--|
G||--------------------|-----------------|-------------------|------------------|
                                         
A|-(-)---------------|-----------------|
E|-------5-5-3-3-5-5-|-----5-5-3-3-5---|
C|--2--2-------------|-2-2-----------2-|
G|-------------------|-----------------|

A|-(5)-5-----5-5-7-7-|-8-8-10-10-8-8-7-5-o||-8-8-10-10-8-7-5-5-|
E|-------5-5---------|--------------------||-------------------|
C|-------------------|--------------------||-----------------9-|
G|-------------------|--------------------||-------------------|
                                            
[Verse]
A||o------------|----------1-|-1--------1-|-1-----------|
E||--5--------5-|-5--------1-|-1--------1-|-1--------3--|
C||--2--------2-|-2----------|------------|----------0--|
G||-------------|------------|------------|-------------|
                                                                      
A|------------|------------|------------|------------o||----------1-|
E|-3--------3-|-3--------5-|-5--------5-|-5--------5--||-5--------1-|
C|-0--------0-|-0--------2-|-2--------2-|-2--------2--||-2----------|
G|------------|------------|------------|-------------||------------|

[Chorus]
                                                          
A||o-1----1-----|------------|------------|----------1--|
E||--1----1---3-|-3----3---5-|-5----5---3-|-3----3---1--|
C||-----------0-|-0----0---2-|-2----2---0-|-0----0------|
G||-------------|------------|------------|-------------|

A|-1----1---3-|-3---5-5---5-|
E|----------1-|-1---3-3-----|
C|-5----5-----|-----------9-|
G|------------|-------------|
                                           
A|----------|----------1-o||-------------|
E|-5--------|-5----5---1--||-5---------5-|
C|-2--------|-2----2------||-2---------2-|
G|----------|-------------||-------------|

[Verse]

                                                        
A|----------1-|-1----1-----|------------|-------------|
E|-5----5---1-|-1----1---3-|-3----3---5-|-5---3-3---5-|
C|-2----2-----|----------0-|-0----0---2-|-2---0-0---2-|
G|------------|------------|------------|-------------|
                                                     
A|----------1-|-1----1-----|----------|------------|
E|-5----5---1-|-1----1---3-|-3--------|-3----3---5-|
C|-2----2-----|----------0-|-0--------|-0----0---2-|
G|------------|------------|----------|------------|

A|-5----5---1-|-1----1---3-|-3--------3-|-3---5-5---5-|
E|------------|------------|----------1-|-1---3-3-----|
C|-9----9---5-|-5----5---7-|-7----------|-----------9-|
G|------------|------------|------------|-------------|
                                                     
A|----------1-|-1----1-----|----------|----------1-|
E|-5----5---1-|-1----1---3-|-3--------|-3----3---1-|
C|-2----2-----|----------0-|-0--------|-0----0-----|
G|------------|------------|----------|------------|

[Chorus]

A||o-1-1-1-1--1-1---|----------------|----------------|--------------1--|
E||--1-----1------3-|-3-----3------5-|-5-----5------3-|-3-----3------1--|
C||---------------0-|-0-0-0-0--0-0-2-|-2-2-2-2--2-2-0-|-0-0-0-0--0-0----|
G||-----------------|----------------|----------------|-----------------|
                                                  
A|-1-1-1-1--1-1---|------------|----------------|
E|-1-----1------1-|-1---3----5-|-5-----5------5-|
C|--------------0-|-0---2----2-|-2-2-2-2--2-2-2-|
G|--------------5-|-5---7------|----------------|
                                          
A|--------------1-o||-------------------|
E|-5-----5------1--||--5-----5----------|
C|-2-2-2-2--2-2----||--2-2-2-2--2-2-2---|
G|-----------------||-------------------|
                                                                              
A||o-----------------|-----------------|-----------------|------------------|
E||------5-5-3-3-5-5-|-----5-5-3-3-5---|-----5-5-3-3-5-5-|-----5-5-3-3-5----|
C||--2-2-------------|-2-2-----------2-|-2-2-------------|-2-2-----------2--|
G||------------------|-----------------|-----------------|------------------|
                                       
A|-----------------|-----------------|
E|-----5-5-3-3-5-5-|-----5-5-3-3-5---|
C|-2-2-------------|-2-2-----------2-|
G|-----------------|-----------------|

A|-5-5-----5-5-7-7-|-8-8-10-10-8-8-7-5-o||-8-8-10-10-8-7-5---|
E|-----5-5---------|--------------------||-------------------|
C|-----------------|--------------------||-------------------|
G|-----------------|--------------------||-----------------7-|

[Interlude]

A|------7-----|-7------7----------|-------------------|------|
E|---------1--|------1------------|-6----6-5-3--5-6-5-|-5----|
C|-2----------|----------2----2---|-------------------|------|
G|------------|-----------------5-|-------------------|------|
                                                                   
A|------7-----|-7------7----------|----------------|-------------|
E|---------1--|------1------------|-6----6-5-3-----|----------5--|
C|-2----------|----------2----2---|----------------|-2----2------|
G|------------|-----------------5-|-------------5--|-------------|
                                                                        
A|------------7-|-------7--7-----7-|-------7--7---------|-------------|
E|--------5-----|-1-3-1------5-----|-1-3-1----------5-6-|-5----5---5--|
C|-2----2---2---|--------------2---|------------2-------|-------------|
G|--------------|------------------|--------------5-----|-------------|
                                     
A|------------7-|-------7--7-----7-|
E|--------5-----|-1-3-1------5-----|
C|-2----2---2---|--------------2---|
G|--------------|------------------|
                                             
A|-------7--7--------------|---------------|
E|-1-3-1----------5-5--6---|5--5--5-----5--|
C|------------2------------|---------------|
G|--------------5----------|---------------|

[Chorus]

A||o-----------------|------------------|
E||----5-1-3-3-------|---5-1-3-3-1------|
C||--2-----------2-2-|-2----------------|
G||------------------|--------------3-3-|
                                            
A|-----5-7-7-------|-----5-7-7------------|
E|---1-------------|---1-------------3-3--|
C|-----------------|----------------------|
G|-3-----------3-3-|-3-----------5-5------|
                                                           
A|---5-------------|-------7-7-------|-------------------|
E|-3-----------5-5-|-5-1---------5---|-----5-------5-----|
C|-----------------|-----2-----------|--2----2---------2-|
G|-----3-5-5-------|-----------5-----|---------5-5---5---|
                                         
A|-----------------o||-----------------|
E|---5-------5------||-----5-----------|
C|-2---2---------2--||-2---2-------2---|
G|-------5-5---5----||-------5-5-------|
                                                                              
A||o-----------------|-----------------|-----------------|------------------|
E||------5-5-3-3-5-5-|-----5-5-3-3-5---|-----5-5-3-3-5-5-|-----5-5-3-3-5----|
C||--2-2-------------|-2-2-----------2-|-2-2-------------|-2-2-----------2--|
G||------------------|-----------------|-----------------|------------------|
                                       
A|-----------------|-----------------|
E|-----5-5-3-3-5-5-|-----5-5-3-3-5---|
C|-2-2-------------|-2-2-----------2-|
G|-----------------|-----------------|

A|-5-5-----5-5-7-7-|-8-8-10-10-8-8-7-5-o||-8-8-10-10-8-7-5-5-|
E|-----5-5---------|--------------------||-------------------|
C|-----------------|--------------------||-----------------9-|
G|-----------------|--------------------||-------------------|
                                                                       
A|--------------1-|-1-1-1-1--1-1---|----------------|----------------|
E|-5-----5------1-|-1-----1------3-|-3-----3------5-|-5-----5------3-|
C|-2-2-2-2--2-2---|--------------0-|-0-0-0-0--0-0-2-|-2-2-2-2--2-2-0-|
G|----------------|----------------|----------------|----------------|
                                                                   
A|--------------1-|-1-1-1-1--1-1---|------------|----------------|
E|-3-----3------1-|-1-----1------1-|-1---3----5-|-5-----5------5-|
C|-0-0-0-0--0-0---|--------------0-|-0---2----2-|-2-2-2-2--2-2-2-|
G|----------------|--------------5-|-5---7------|----------------|
                                                                       
A|--------------1-|-1-1-1-1--1-1---|----------------|----------------|
E|-5-----5------1-|-1-----1------3-|-3-----3------5-|-5-----5------3-|
C|-2-2-2-2--2-2---|--------------0-|-0-0-0-0--0-0-2-|-2-2-2-2--2-2-0-|
G|----------------|----------------|----------------|----------------|

A|-3-3-3-3--3-3-1-|-1-1-1-1--1-1-3-|-3---5----5-|-5----|
E|----------------|--------------1-|-1---3------|------|
C|-7-----7------5-|-5-----5--------|----------9-|-9----|
G|----------------|----------------|------------|------|

[Outro]
                                                                           
A|---------------7-----------------7---|---------------------------------|
E|-----5-------------1-----3---1-------|-------3---------------------1---|
C|-------2-2---------------------------|-------------------------------2-|
G|-----------------------------------5-|-5-------5-------3---5---5-------|
                                                                           
A|---------------7-----------------7---|---------------------------------|
E|-------5---------1-1-----3---1-------|---------------------------------|
C|-2---------2-------------------------|---------------------------------|
G|-----------------------------------5-|-5-------------------------------|
                                     
A|-----------------1---1---1---1---|
E|---5---5---5---5---1---1---1---1-|
C|-2---2---2---2-------------------|
G|---------------------------------|
                                                     
A|---------------------------------|---------------|
E|---3---3---3---3-1---1---3---3---|---5---5-------|
C|-0---0---0---0-------------2---2-|-2---2---2-----|
G|-------------------5---5---------|---------------|




            
            
Suggest correction
Creating personal tab
Creating personal tab
You can edit any tab online and save it as your Personal.

You can edit, replace or remove any tab part or add personal notes – all changes will be seen only by you.

Personal tabs can be accessed anytime from any device, even offline.
Learn more »
Give kudos to tab author, rate the tab!
1 2 3 4 5
comments
print report bad tab
guest
You may want to rate the tab now too:
select rating
Wanna post a correction for this tab? Suggest correction