Oops, an error
Loading. Please wait.
We have an official Hallowed Be Thy Name tab made by UG professional guitarists. Check out the tab »
×
8,095 views 9 this week
no commentswrite comment
1 2 3 4 5
x 11
add to favorites
×
Save as Personal and add changes to this tab that will be seen only by you. Learn more ›
×
You can save this tab as Personal to edit and correct it or add notes. All changes will be seen only by you. Learn more »
launch autoscroll
font size
0
reset
guitar tuner
backing track
0:00
0:00
edit
Autoscroll
slow
fast
+/-
esc
set tempo
stop
Author
G|-------------------------------------------------------------------|
D|o-----------------------------------------------------------------o|
A|o-----------------------------------------------------------------o|x3
E|--0---------------0---------------0---------------0----------------|
    1 + 2 + 3 + 4 + 1 + 2 + 3 + 4 + 1 + 2 + 3 + 4 + 1 + 2 + 3 + 4 +

G|-------------------------------------------------------------------|
D|o-----------------------------------------------------------------o|
A|o-3---------------5-----------5h7---------------------------------o|
E|----------------------------------0---------------0----------------|
    1 + 2 + 3 + 4 + 1 + 2 + 3 + 4 + 1 + 2 + 3 + 4 + 1 + 2 + 3 + 4 +

0:58
G|-----------------------------------------------------------------|
D|-----------------------------------------------------------------|
A|-7-7-7-7-7-7-7-7-7-7-7-7-7-7-7-7-3-3-3-3-3-3-3-3-3-3-3-3-3-3-3-3-|
E|-----------------------------------------------------------------|
   1 e + a 2 e + a 3 e + a 4 e + a 1 e + a 2 e + a 3 e + a 4 e + a 

G|-----------------------------------------------------------------|
D|-------------------------------------------------5-4-0---5-4-0---|
A|-5-5-5-5-5-5-5-5-5-5-5-5-5-5-5-5-7-7-7-7-7-7-7-7-----------------|
E|-----------------------------------------------------------------|
   1 e + a 2 e + a 3 e + a 4 e + a 1 e + a 2 e + a 3 e + a 4 e + a 

1:08
G|------------------------------------------------------------------|
D|o-----------------------------------------------------------------|
A|o-7---7-7-7---7-7-7-7-7-7-7---7-7-3---3-3-3---3-3-3-3-3-3-3---3-3-|
E|------------------------------------------------------------------|
    1 e + a 2 e + a 3 e + a 4 e + a 1 e + a 2 e + a 3 e + a 4 e + a 

G|------------------------------------------------------------------|
D|-------------------------------------------------5-4-0---5-4-0---o|
A|-5---5-5-5---5-5-5-5-5-5-5---5-5-7---7-7-7---7-7-----------------o|
E|------------------------------------------------------------------|
   1 e + a 2 e + a 3 e + a 4 e + a 1 e + a 2 e + a 3 e + a 4 e + a 

1:26
G|-----------------------------------------------------------------|
D|-----------------------------------------------------------------|
A|-7---7-7-7-7-7-7-7-7-7-7-7-7-7-7-3---3-3-3-3-3-3-3-3-3-3-3-3-3-3-|
E|-----------------------------------------------------------------|
   1 e + a 2 e + a 3 e + a 4 e + a 1 e + a 2 e + a 3 e + a 4 e + a 

G|-----------------------------------------------------------------|
D|-------------------------------------------------5-4-0---5-4-0---|
A|-5-5-5-5-5-5-5-5-5-5-5-5-5-5-5-5-7-7-7-7-7-7-7-7-----------------|
E|-----------------------------------------------------------------|
   1 e + a 2 e + a 3 e + a 4 e + a 1 e + a 2 e + a 3 e + a 4 e + a 

1:35
G|------------------------------------------------------------------|
D|o-----------------------------------------------------------------|
A|o-7-------------------------------3-------------------------------|
E|------------------------------3-------------------------------5---|
    1 e + a 2 e + a 3 e + a 4 e + a 1 e + a 2 e + a 3 e + a 4 e + a 

G|------------------------------------------------------------------|
D|---------------------------------------------------------5-4-2-0-o|
A|-5-------------------------------7-----2-----3-----2-3-2---------o|
E|-----------------------------7------------------------------------|
   1 e + a 2 e + a 3 e + a 4 e + a 1 e + a 2 e + a 3 e + a 4 e + a 

1:54
G|------------------------------------------------------------------|
D|o-----------------------------------------------------------------|
A|o-7---7-7-7-7-7-7-7-7-7-7-7---7---3-3-3-3-3-3-3-3-3-3-3-3-3---3---|
E|------------------------------------------------------------------|
    1 e + a 2 e + a 3 e + a 4 e + a 1 e + a 2 e + a 3 e + a 4 e + a 

G|------------------------------------------------------------------|
D|---------------------------------------------------------5-4-2-0-o|
A|-5-5-5-5-5-5-5-5-5-5-5-5-5---5---7-----2-----3-----2-3-2---------o|
E|------------------------------------------------------------------|
   1 e + a 2 e + a 3 e + a 4 e + a 1 e + a 2 e + a 3 e + a 4 e + a 

2:13
G|------------------------------------------------------------------|
D|o-----------------------------------------------------------------|
A|o-7---7-7-7---7-7-7-7-7-7-7---7-7-3---3-3-3---3-3-3-3-3-3-3---3-3-|
E|------------------------------------------------------------------|
    1 e + a 2 e + a 3 e + a 4 e + a 1 e + a 2 e + a 3 e + a 4 e + a 

G|------------------------------------------------------------------|
D|-------------------------------------------------5-4-0---5-4-0---o|
A|-5---5-5-5---5-5-5-5-5-5-5---5-5-7---7-7-7---7-7-----------------o|
E|------------------------------------------------------------------|
   1 e + a 2 e + a 3 e + a 4 e + a 1 e + a 2 e + a 3 e + a 4 e + a 

2:32
G|------------------4---------4-------------4---------------4-------|
D|o-----------4-5-7-------------5-4-----4-5-----5-4-----4-5---5-4---|
A|o-7-------------------------------7---------------7---------------|
E|------------------------------------------------------------------|
    1 e + a 2 e + a 3 e + a 4 e + a 1 e + a 2 e + a 3 e + a 4 e + a 

G|-----------------4---------4-------------4---------------4--------|
D|-----------4-5-7-------------5-4-----4-5-----5-4-----4-5---5-4---o|
A|-3-------------------------------3---------------3---------------o|
E|------------------------------------------------------------------|
   1 e + a 2 e + a 3 e + a 4 e + a 1 e + a 2 e + a 3 e + a 4 e + a 

2:49
G|-----------------------------------------------------------------|
D|-----------------------------------------------------------------|
A|-7-7-7-7-7-7-7-7-7-7-7-7-7-7-7-7-7-7-7-7-7-7-7-7-7-7-7-7-7-5-----|
E|-----------------------------------------------------------------|
   1 e + a 2 e + a 3 e + a 4 e + a 1 e + a 2 e + a 3 e + a 4 e + a 

G|-----------------------------------------------------------------|
D|-----------------------------------------------------------------|
A|-3---3-3-3-3-3-3-3-3-3-3-3-3-3-3-3-3-3-3-3-3-3-3-3-3-3-3-3-5-----|
E|-----------------------------------------------------------------|
   1 e + a 2 e + a 3 e + a 4 e + a 1 e + a 2 e + a 3 e + a 4 e + a 

G|-----------------------------------------------------------------|
D|-----------------------------------------------------------------|
A|-7---7-7-7-7-7-7-7-7-7-7-7-7-7-7-7-7-7-7-7-7-7-7-7-7-7-7-7-5-----|
E|-----------------------------------------------------------------|
   1 e + a 2 e + a 3 e + a 4 e + a 1 e + a 2 e + a 3 e + a 4 e + a 

G|-----------------------------------------------------------------|
D|-----------------------------------------------------------------|
A|-3---3-3-3-3-3-3-3-3-3-3-3-3-3-3-3-3-3-3-3-3-3-3-3-3-3-3-3---5---|
E|-----------------------------------------------------------------|
   1 e + a 2 e + a 3 e + a 4 e + a 1 e + a 2 e + a 3 e + a 4 e + a 

3:08
G|------------------------------------------------------------------|
D|o-----------------------------------------------------------------|
A|o-7---7-7-7-7-7-7-7-7-7-7-7---7---3---3-3-3-3-3-3-3-3-3-3-3---3---|
E|------------------------------------------------------------------|
    1 e + a 2 e + a 3 e + a 4 e + a 1 e + a 2 e + a 3 e + a 4 e + a 

G|------------------------------------------------------------------|
D|-------------------------------------------------5-4-0---5-4-0---o|
A|-5---5-5-5-5-5-5-5-5-5-5-5---5---7---7-7-7---7-7-----------------o|x4
E|------------------------------------------------------------------|
   1 e + a 2 e + a 3 e + a 4 e + a 1 e + a 2 e + a 3 e + a 4 e + a 

3:46
G|-----------------------------------------------------------------|
D|-----------------------------------------------------------------|
A|-7---7-7-7---7-7-7---7-7-7---7-7-7---7-7-7---7-7-7---7-7-7-5-----|
E|-----------------------------------------------------------------|
   1 e + a 2 e + a 3 e + a 4 e + a 1 e + a 2 e + a 3 e + a 4 e + a 

G|-----------------------------------------------------------------|
D|-----------------------------------------------------------------|
A|-3---3-3-3---3-3-3---3-3-3---3-3-3---3-3-3---3-3-3---3-3-3-5-----|
E|-----------------------------------------------------------------|
   1 e + a 2 e + a 3 e + a 4 e + a 1 e + a 2 e + a 3 e + a 4 e + a 

G|-----------------------------------------------------------------|
D|-----------------------------------------------------------------|
A|-7---7-7-7---7-7-7---7-7-7---7-7-7---7-7-7---7-7-7---7-7-7-5-----|
E|-----------------------------------------------------------------|
   1 e + a 2 e + a 3 e + a 4 e + a 1 e + a 2 e + a 3 e + a 4 e + a 

G|-----------------------------------------------------------------|
D|-----------------------------------------------------------------|
A|-3---3-3-3---3-3-3---3-3-3---3-3-3---3-3-3---3-3-3---3-3-3---5---|
E|-----------------------------------------------------------------|
   1 e + a 2 e + a 3 e + a 4 e + a 1 e + a 2 e + a 3 e + a 4 e + a 

4:04
G|-----------------------------------------------------------------|
D|-----------------------------------------------------------------|
A|-7---------------------------------------------------------------|
E|-------------------------------------------------------------7-r-|
   1 e + a 2 e + a 3 e + a 4 e + a 1 e + a 2 e + a 3 e + a 4 e + a 

G|-----------------------------------------------------------------|
D|-----------------------------------------------------------------|
A|-----------------------------------------------------------------|
E|-0-----------------------------------------------------------3---|
   1 e + a 2 e + a 3 e + a 4 e + a 1 e + a 2 e + a 3 e + a 4 e + a 

G|-----------------------------------------------------------------|
D|-----------------------------------------------------------------|
A|-3---------------------------------------------------------------|
E|-------------------------------------------------------------3---|
   1 e + a 2 e + a 3 e + a 4 e + a 1 e + a 2 e + a 3 e + a 4 e + a 

G|-----------------------------------------------------------------|
D|-------------------------------------------------------------0---|
A|-----------------------------------------------------------------|
E|-0---------------------------------------------------------------|
   1 e + a 2 e + a 3 e + a 4 e + a 1 e + a 2 e + a 3 e + a 4 e + a 

4:22
G|----------4-------------------------------4------------------------|
D|o-2-4-5-4---4-5-4-5-4-2-0-----0---2-4-5-4---4-5-4-5-4-2-0-----0---o|
A|o-------------------------3-------------------------------3-------o|
E|-------------------------------------------------------------------|
    1 e + a 2 e + a 3 e + a 4 e + a 1 e + a 2 e + a 3 e + a 4 e + a 

4:31
G|------------------------------------------------------------------|
D|o-------------------------------------------------5-4-------------|
A|o-7-7-7-7-7-7-7-7-7-7-7---7-7-7---7-7-7-7-7-7-7-7-----5---3-2-----|
E|--------------------------------------------------------------3---|
    1 e + a 2 e + a 3 e + a 4 e + a 1 e + a 2 e + a 3 e + a 4 e + a 

G|------------------------------------------------------------------|
D|-------------------------------------------------5-4-------------o|
A|-5-5-5-5-5-5-5-5-5-5-5---5-5-5---5-5-5-5-5-5-5-5-----5---3-2-----o|x6
E|-------------------------------------------------------------3----|
   1 e + a 2 e + a 3 e + a 4 e + a 1 e + a 2 e + a 3 e + a 4 e + a 

5:24 x3|
G|-------------------------------------------------------------------------|
D|o---------------------------------------------------------------5--------|
A|o-7-7-7-7-7-7-7-7-7-7-7-7-7-7-7-7-7-7-7-7-7-7-7-7-7-7-7-7-7-7-7-----7-5--|
E|-------------------------------------------------------------------------|
    1 e + a 2 e + a 3 e + a 4 e + a 1 e + a 2 e + a 3 e + a 4 e + a 1 e + a|


--------------------------|
-------5-----------------o|
-----------7-5-----7-7---o|
--------------------------|
 2 e + a 3 e + a 4 e + a
 

G|-----------------------------------------------------------------|
D|-----------------------------------------------------------------|
A|-7-7-7-7-7-7-7-7-7---7-7---7-7---7-7-7-7-7-7-7-7-7-7-7-7-7-7-5-5-|
E|-----------------------------------------------------------------|
   1 e + a 2 e + a 3 e + a 4 e + a 1 e + a 2 e + a 3 e + a 4 e + a 

5:48
G|------------------------------------------------------------------|
D|o-----------------------------------------------------------------|
A|o-7---7-7-7-7-7-7-7-7-7-7-7-7-7---3---3-3-3-3-3-3-3-3-3-3-3-3-3---|
E|------------------------------------------------------------------|
    1 e + a 2 e + a 3 e + a 4 e + a 1 e + a 2 e + a 3 e + a 4 e + a 

G|------------------------------------------------------------------|
D|-------------------------------------------------5-4-0-5-4-0-5-4-o|
A|-5---5-5-5-5-5-5-5-5-5-5-5-5-5---7---7-7-7-7-7-7-----------------o|
E|------------------------------------------------------------------|
   1 e + a 2 e + a 3 e + a 4 e + a 1 e + a 2 e + a 3 e + a 4 e + a 

6:05
G|------------------------------------------------------------------|
D|o-----------------------------------------------------------------|
A|o-7---7-7-7-7-7-7-7-7-7-7-7-7-7---3---3-3-3-3-3-3-3-3-3-3-3-3-3---|
E|------------------------------------------------------------------|
    1 e + a 2 e + a 3 e + a 4 e + a 1 e + a 2 e + a 3 e + a 4 e + a 

G|------------------------------------------------------------------|
D|---------------------------------------------------------5-4-0-2-o|
A|-5---5-5-5-5-5-5-5-5-5-5-5-5-5---7-----2-----3-----2-3-2---------o|
E|------------------------------------------------------------------|
   1 e + a 2 e + a 3 e + a 4 e + a 1 e + a 2 e + a 3 e + a 4 e + a 

6:23
G|-----------------------------------------------------------------|
D|-----------------------------------------------------------------|
A|-7---7-7-7-7-7---7-7-7---7-7-5---3-3-3-3-3-3-3---3-3-3---3-3-3---|
E|-----------------------------------------------------------------|
   1 e + a 2 e + a 3 e + a 4 e + a 1 e + a 2 e + a 3 e + a 4 e + a 

G|-----------------------------------------------------------------|
D|-------------------------------------------------5-4-0---5-4-0---|
A|-5-5-5-5-5-5-5---5-5-5---5-5-5---7-7-7-7-7-7-7-------------------|
E|-----------------------------------------------------------------|
   1 e + a 2 e + a 3 e + a 4 e + a 1 e + a 2 e + a 3 e + a 4 e + a 

G|-----------------------------------------------------------------|
D|-----------------------------------------------------------------|
A|-7-7-7-7-7-7-7---7-7-7---7-7-5---3-3-3-3-3-3-3---3-3-3---3---3---|
E|-----------------------------------------------------------------|
   1 e + a 2 e + a 3 e + a 4 e + a 1 e + a 2 e + a 3 e + a 4 e + a 

G|---------------------------------|
D|---------------------------------|
A|-5-5-5-5-5-5-5---5-5-5---5-------|
E|-----------------------------7---|
   1 e + a 2 e + a 3 e + a 4 e + a

G|-----------------------------------------------------------------|
D|-----------------------------------------------------------------|
A|-7---------------------------------------------------------------|
E|-------------------------------------------------------------5---|
   1 e + a 2 e + a 3 e + a 4 e + a 1 e + a 2 e + a 3 e + a 4 e + a 

G|-----------------------------------------------------------------|
D|-----------------------------------------------------------------|
A|-5---------------------------------------------------------------|
E|-------------------------------------------------------------3---|
   1 e + a 2 e + a 3 e + a 4 e + a 1 e + a 2 e + a 3 e + a 4 e + a 

G|-----------------------------------------------------------------|
D|-----------------------------------------------------------------|
A|-3---------------------------------------------------------------|
E|-------------------------------------------------------------5---|
   1 e + a 2 e + a 3 e + a 4 e + a 1 e + a 2 e + a 3 e + a 4 e + a 

G|-----------------------------------------------------------------|
D|-----------------------------------------------------------------|
A|-5---------------------------------------------------------------|
E|-------------------------------------------------------------7---|
   1 e + a 2 e + a 3 e + a 4 e + a 1 e + a 2 e + a 3 e + a 4 e + a 

G|-----------------------------------------------------------------|
D|-----------------------------------------------------------------|
A|-7-7-7-7-7-7-7-7-7-7-7-7-7-7-7-7-7-7-7-7-7-7-7-7-7-7-7-7-7-7-7-7-|
E|-----------------------------------------------------------------|
   1 e + a 2 e + a 3 e + a 4 e + a 1 e + a 2 e + a 3 e + a 4 e + a 

G|-----------------------------------------------------------------|
D|-----------------------------------------------------------------|
A|-7-7-7-7-7-7-7-7-7-7-7-7-7-7-7-7---------------------------------|
E|-----------------------------------------------------------------|
   1 e + a 2 e + a 3 e + a 4 e + a 1 e + a 2 e + a 3 e + a 4 e + a 

G|---------------------------------|
D|---------------------------------|
A|-7-7-7-7-----7-7-7-7-\-\---------|
E|---------------------------------|
   1 e + a 2 e + a 3 e + a 4 e + a

            
            
Suggest correction
Creating personal tab
Creating personal tab
You can edit any tab online and save it as your Personal.

You can edit, replace or remove any tab part or add personal notes – all changes will be seen only by you.

Personal tabs can be accessed anytime from any device, even offline.
Learn more »
comments
print report bad tab
guest
You may want to rate the tab now too:
select rating
Wanna post a correction for this tab? Suggest correction